música
Buscador

Acorde de Slave - Weezer

Letra de Slave

============ 

INTRO/BRIDGE

============



e|----------|

B|----------|

G|--4-1-6---|

D|--4-2-6-4-|

A|--2-2-4-4-|

E|--2-0-4-2-|



=====

VERSE

=====



D B A E

Love, barely a-live, in your arms, slave



======

CHORUS

======



D A

Who put on your heart





D C# D

...I can't change, no..

http://www.coveralia.com/acordes/slave-weezer.php



======

BRIDGE

======



B E C# F#

And my girl will say goodbye, to the things we never tried



====

SOLO

====



e|--------------------------------------------------------------/14-14-14-14-12-10-9--9-9--/14-14-14-14-12-10-9--9h-10-9-7-5--5-5h-7-5---

B|--/10-9-7--(7)h-10-9-7--/14-14-14-14h-15-12h-14-12-10h-12-10---------------------------------------------------------------------------

G|---------------------------------------------------------------------------------------------------------------------------------------

D|---------------------------------------------------------------------------------------------------------------------------------------

A|---------------------------------------------------------------------------------------------------------------------------------------

E|---------------------------------------------------------------------------------------------------------------------------------------





OUTRO



D B D B A G

Love, barely a-live, love, barely a-live, sla-ve





Letra subida por: Anónimo

Discos en los que aparece este acorde: Maladroit , Maladroit (Uk Edition)

El acorde de Slave de Weezer es una versión de la canción original realizada por colaboradores/usuarios de Coveralia.

¿Has encontrado algún error en esta página? Envíanos tu corrección del acorde