música
Buscador

Acorde de Sinematic (Combichrist Remix) - Motionless In White

Letra de Sinematic (Combichrist Remix)



Intro:

Cmaj7 Em Cmaj7 Em

E|--------------------------------------------------------------------0---|

B|-----------1-----1p0--------------0------------1-----1p0----------------|

G|---------0---0--------0---------0------------0---0--------0-------------|

D|-------2-------2--------2-----2------------2-------2--------2-----2-----|

A|-----2--------------------2-3------------2--------------------2-3-------|

E|---0-----------------------------------0--------------------------------|

Cmaj7 Em Cmaj7 Em C

E|----------------------------------------------------------------0-|

B|-----------1-----1p0--------------0------------1-----1p0--------1-|

G|---------0---0--------0---------0------------0---0--------0-----0-|

D|-------2-------2--------2-----2------------2-------2--------2---2-|

A|-----2--------------------2-3------------2--------------------2-3-|

E|---0-----------------------------------0------------------------0-|



Verse I:

[Variations]

Em Esus2

E|----3------2----|

B|----0------0----|

G|----0------x----|

D|----2------4----|

A|----2------2----|

E|----0------0----|



Em

The wall that I have built to keep you out is starting to rust

Esus2

Because everything around me just reminds me of us.

Em

I am an addict for dramatics, black hair and pale skin.

Esus2

Yet I'm still collecting bones, but that's why closets are for skeletons



Pre-Chorus I:

[Variation]

Emadd9

E|---2----|

B|---0----|

G|---0----|

D|---2----|

A|---2----|

E|---0----|



Em Emadd9

Undress your body, hold it over my head

Em

Because you know that if you knock then

Em Emadd9

I'll always let you in

Em Emadd9

I've been numb for so long that I forgot how to feel

Em Emadd9

Just fuck me till we disappear



Chorus:

Em

You said you'd never hurt me

Esus2

Now this is all that we have left

Cadd9 G Gsus2

You were supposed to save me

Em

From myself



(Repeat Intro Riff)



http://www.coveralia.com/acordes/sinematic--combichrist-remix--motionless-in-white.php

Verse II:

[Variations]

Em

The wall that I have built to keep you out has crumbled to dust

Esus2

And I hope that everything you see reminds you of us



Pre-Chorus II:

[Variations]

Em Emadd9

I've been gone for so long that I forgot what is real

Em Emadd9

So I don't care if I will miss you, please just fuck me till we disappear



Chorus:

Em

You never said you'd hurt me

Esus2

Now this is all that we have left

Cadd9 G Gsus2

You were supposed to save me

Em

From myself



Em

You said you'd never love me

Esus2

But look how hard someone can fall

Cadd9 G Gsus2

I was supposed to save you

Em

From yourself



Bridge:

[Variations]

E|----0----0----0----0----0----0----0----0----0----0----3----3----|

B|----0----0----0----0----0----0----0----0----0----0----3----3----|

G|----0----9----7----9----7----9----7----5----4----5----0----2----|

D|----2----9----7----9----7----9----7----5----4----5----0----0----|

A|----2----7----5----7----5----7----5----3----2----3----2----0----|

E|----0----0----0----0----0----0----0----0----0----0----3----3----| x2

Em E5 E7sus4 E5 E7sus4 E5 E7sus4 Cmaj7 Esus2 Cmaj7 G Gsus2



Em (let ring) E5 (let ring)



Em

Now the sky is on fire and we lie wide awake

E7sus4

There is no other way than to make this mistake

Cmaj7 G Gsus2 Em

We can't control who we hurt so we fuck the pain away

Em

So put all of your pride, all your guilt into me

E7sus4

And suck the breath from my lungs and I'll swallow your hate

Cmaj7 G Gsus2 Em

We can't control how we hurt so we fuck the pain away



Outro:

Cmaj7 Em Cmaj7 Em

E|--------------------------------0---------0----------|

B|-----------1-----1p0-----------0-----------0---------|

G|---------0---0--------0-------0-------------0--------|

D|-------2-------2--------2----2---------------2-------|

A|-----2--------------------2-3-----------------2------|

E|---0-------------------------------------------0-----|





Letra subida por: Anónimo

Discos en los que aparece este acorde: Infamous (Deluxe Edition)

El acorde de Sinematic (Combichrist Remix) de Motionless In White es una versión de la canción original realizada por colaboradores/usuarios de Coveralia.

¿Has encontrado algún error en esta página? Envíanos tu corrección del acorde