música
Buscador

Acorde de Sigo Siendo El Mismo - Doble Fuerza

Letra de Sigo Siendo El Mismo

  Intro
1|-----------------------------------------|
2|------4-55-77----------------4-55-77-----|
3|-----5---------77-4-7-4-----5---------77-|
4|55-00--------55--5-----55-00--------55--5|


  Verso 1:
1|-------------------|
2|-------------------|
3|----7777-5/7-5-4---|
4|5555------------7-5|


  Verso 2:
1|-------------------------|
2|-------------------------|
3|555---555---555---555-777|
4|---555---777---555-------|


  Verso 3:
1|------------------------------------------------------|
2|------4-55-77----------------4-55-77------------------|
3|-----5---------77-4-7-4-----5---------77--------------|
4|55-00--------55--5-----55-00--------55--55-45-45-45...|


REPITE VERSO 1

REPITE VERSO 2

REPITE VERSO 3


  (Empieza el solo) (X2)
1|----------------|
2|----------------|
3|---55545---77767|
4|555-----555-----|


REPITE LA INTRO HASTA EL FINAL





Verso 1

Yo se muy bien que hay mucha gente
Que de mi empezó a hablar mal
Ellos dicen que todo ha cambiado
Y sin embargo todo sigue igual
Yo no sé por que justo a mi
Por que de otros no hablan mal



Verso 2

Nunca lo podré saber
Yo no lo puedo entender
Sigo siéndole mismo
Porque así me crié



Verso 3

Sigo siendo el mismo
Y así moriré



Sé que por más que a vos te explique
Sos un salame y no lo entendés
A vos siempre te gustó hablar de más
Yeso vos bien lo sabes
Sin embargo te digo una cosa
Sé muy bien quien soy yo

Eso ya lo sé muy bien
Siempre lo pude entender
Sigo siendo el mismo
Porque así yo me crié




Letra subida por: Anónimo

Discos en los que aparece este acorde: Pibes De Barrio , O Melhor De Doble Fuerza

El acorde de Sigo Siendo El Mismo de Doble Fuerza es una versión de la canción original realizada por colaboradores/usuarios de Coveralia.

¿Has encontrado algún error en esta página? Envíanos tu corrección del acorde