música
Buscador

Acorde de Si Tú No Estás Aquí - Angeles Del Infierno

Letra de Si Tú No Estás Aquí

Intro: Em-C-D-B-Am-G(teclado) 



Em

solo los dos

C

el mismo par

G D

un trago por terminar

Em C

una mirada en la oscuridad

G D

y una hasta mañana



C D

solo un momento mas

Em C

solo un minuto mas

C

cuando tu te vas

D Em

ya nada es igual





(subele al distor)

C Em C D

si tu no estas aqui ohhhhh ohhhhh

D Em C D D

si tu no estas aqui ohhhhh ohhhhh





Em C

necesito oir tu voz

G D

necesito tu calor

Em C

si tu pudieras estar aqui

G D

no sabes cuanto daria yo

C D

las horas llegan y se van

Em C

en sueños te puedo olvidar

C D Em

te deseo mas cruzando la ciudad





C Em C D

si tu no estas aqui ohhhhh ohhhhh

D Em C D D

si tu no estas aqui ohhhhh ohhhhh





(solo)

E|----------------------------------------------------------|

B|--- 13-12------------13-12----13-12----13-12--------------|

http://www.coveralia.com/acordes/si-tu-no-estas-aqui-angeles-del-infierno.php

G|12---------12~~---12-------12-------12-------12~~---------|

D|----------------------------------------------------------|

A|----------------------------------------------------------|

E|----------------------------------------------------------|





E|----------------------------------------------------------|

B|----------------------------------------------------------|

G|--11-12-12/14-----11~~--------14----12----11~~------------|

D|12-------------12---------12-----12----12-----------------|

A|----------------------------------------------------------|

E|----------------------------------------------------------|





E|----------------------------------------------------------|

B|---13-12--------------------------------------------------|

G|12-------12~~---------4-5-4-5~---4-5-4-5-5/7--------------|

D|--------------------5-------------------------7/9---------|

A|------------------5---------------------------------------|

E|----------------------------------------------------------|





E|----------------------------------------------------------|

B|----------------------------------------------------------|

G|---14----12----11~~---------------------------------------|

D|12-----12----12-------------------------------------------|

A|----------------------------------------------------------|

E|----------------------------------------------------------|





C D

solo un momento mas

Em C

solo un minuto mas

C

cuando tu te vas

D Em

ya nada es igual







C Em C D

si tu no estas aqui ohhhhh ohhhhh

D Em C D D

si tu no estas aqui ohhhhh ohhhhh



Em C D B

ohhhhhhh ohhhhhhhh ohhhhhhh ohhhhhh



Em C D B

ohhhhhhh ohhhhhhhh ohhhhhhh ohhhhhh





Letra subida por: Anónimo

Discos en los que aparece este acorde: 666 , Lo Mejor De Angeles Del Infierno 1984-1993 , Exitos Diabolicos

El acorde de Si Tú No Estás Aquí de Angeles Del Infierno es una versión de la canción original realizada por colaboradores/usuarios de Coveralia.

¿Has encontrado algún error en esta página? Envíanos tu corrección del acorde