música
Buscador

Acorde de Si El Norte Fuera El Sur - Ricardo Arjona

Letra de Si El Norte Fuera El Sur

INTRO



G/A G/A Arm.



e |---12---|

b |---12---|

g |---12---|



G/A G/A G D

G/A G/A F G

G/A G/A G D

G/A G/A F G

G/A G/A E







e |----------------------------------------------------1----------------|

b |-------3-------------3--------------3-------------1------------------|

g |-----0---0---------2---2----------0---0---------2--------------------|

D |---0-------0-----0-------0------2-------2-----3----------------------|

A |---------------------------------------------------------------------|

E |-3-------------2--------------0-------------1------------------------|

El norte, sus Mc Donalds, basketball y rock n'roll



e |-----------------------------------------------------1---------------|

b |--------3-------------3--------------3-------------1-----------------|

g |------0---0---------2---2----------0---0---------2-------------------|

D |----0-------0-----0-------0------2-------2-----3---------------------|

A |---------------------------------------------------------------------|

E |--3-------------2--------------0-------------1-----------------------|

sus topless, sus Madonna's y el abdomen de Stallone



e |----------------------------3--------3----------------0--------------|

b |----1---------------3---------3--------3------------3---3------------|

g |---0-0------0-----0-------------0---0----0--------0-------0----------|

D |--2---2---1-----3---------0------------------------------------------|

A |-3-------------------------------------------------------------------|

E |------------------------3---------2-------------0--------------------|

intelectuales del bronceado, eruditos de supermercado



e |-------------0------------------0----------2h3h2---------------------|

b |-----------1---1------------------2---------------5-3/5--------------|

g |---------0-------0-----------0----------2----------------------------|

D |-------2-------------------2----------0------------------------------|

A |-----3-------------------0-------------------------------------------|

E |---------------------------------------------------------------------|

tienen todo, pero nada han pagado.



e |------------------------------------------------1----------------|

b |-------3-----------3------------3-------------1------------------|

g |-----0---0-------2---2--------0---0---------2--------------------|

D |---0-------0---0-------0----2-------2-----3----------------------|

A |-----------------------------------------------------------------|

E |-3-----------2------------0-------------1------------------------|

Con 18 eres un niño para un trago en algun bar,



e |-------------------------------------------------------1--------|

b |--------3---------------3--------------3-------------1----------|

g |------0---0-----------2---2----------0---0---------2------------|

D |----0-------0-------0-------0------2-------2-----3--------------|

A |----------------------------------------------------------------|

E |--3---------------2--------------0-------------1----------------|

pero ya eres todo un hombre para la guerra y pa' matar



e |----------------------------------3--------3----------------0------|

b |----1---------------------3---------3--------3------------3---3----|

g |---0-0------------0-----0-------------0---0----0--------0-------0--|

D |--2---2---------1-----3---------0----------------------------------|

A |-3-----------------------------------------------------------------|

E |------------------------------3---------2-------------0------------|

Viva Vietnam y que Viva Forrest Gump! Viva Wall Street y que Viva Donald Trump!



e |--------0--------------2h3h2-(lo pueden tocar si gustan))---|

b |----------2-------------------5-3/5-------------------------|

g |-----0------0-------2---------------------------------------|

D |---2--------------0-----------------------------------------|

A |-0----------------------------------------------------------|

E |------------------------------------------------------------|

Viva el Seven Eleven!



G C G B7

Polvean su nariz y usan jeringa en los bolsillos,

Em C G

viajan con marihuana para entender la situacion

D Em**

de este juez del planeta que lanza una invitacion:

C G D C

cortaselo a tu marido y ganaras reputacion!





G D C G

Las barras y las estrellas se adueñan de mi bandera

D C G

Y nuestra libertad no es otra cosa que una ramera

D/F# B7 Em Em D C

y si la deuda externa nos robo la primavera

G D C

al diablo la geografia se acabaron las fronteras



INTRO DEL PRINCIPIO



e |-------------------------------------------------------1--|

b |---------3--------------3--------------3-------------1----|

http://www.coveralia.com/acordes/si-el-norte-fuera-el-sur-ricardo-arjona.php

g |-------0---0----------2---2----------0---0---------2------|

D |-----0-------0------0-------0------2-------2-----3--------|

A |----------------------------------------------------------|

E |---3--------------2--------------0-------------1----------|

Si el norte fuera el sur serian los Sioux los marginados,



e |-----------------------------------------------------1---------------|

b |--------3-------------3--------------3-------------1-----------------|

g |------0---0---------2---2----------0---0---------2-------------------|

D |----0-------0-----0-------0------2-------2-----3---------------------|

A |---------------------------------------------------------------------|

E |--3-------------2--------------0-------------1-----------------------|

ser moreno y chaparrito seria el look mas cotizado,



e |-----------------------------3-----------3---------------------0---|

b |----1------------------3-------3-----------3-----------------3---3-|

g |---0-0---------0-----0-----------0------0----0-------------0------0|

D |--2---2------1-----3-------0---------------------------------------|

A |-3-----------------------------------------------------------------|

E |-------------------------3------------2------------------0---------|

Marcos seria el rambo mexicano, y Cindy Crawford la Menchu de mis paisanos.





e |--------0--------------2--------2-2----------|

b |----------2----------3---3------3-3----------|

g |-----0------0------2-------2----2-2----------|

D |---2-------------0--------------0-0----------|

A |-0-------------------------------------------|

E |---------------------------------------------|

Reagan seria Somoza



e |-------------------------------------------------------1--|

b |---------3--------------3--------------3-------------1----|

g |-------0---0----------2---2----------0---0---------2------|

D |-----0-------0------0-------0------2-------2-----3--------|

A |----------------------------------------------------------|

E |---3--------------2--------------0-------------1----------|

Fidel seria un atleta corriendo bolsas por Wall Street,



e |-----------------------------------------------------1------------|

b |---------3---------------3-----------3-------------1--------------|

g |-------0---0-----------2---2-------0---0---------2----------------|

D |-----0-------0-------0-------0---2-------2-----3------------------|

A |------------------------------------------------------------------|

E |---3---------------2-----------0-------------1--------------------|

y el Che haria hamburguesas al estilo Double Meat



e |-------------------------------3-----------3--------------0---|

b |----1--------------------3-------3-----------3----------3---3-|

g |---0-0----------0------0-----------0------0----0------0------0|

D |--2---2-------1------3-------0--------------------------------|

A |-3------------------------------------------------------------|

E |---------------------------3------------2-----------0---------|

los Yankees, de mojados a Tijuana y las balsas de Miami a la Habana



e |----------0--------------2--------2-2-----|

b |------------2----------3---3------3-3-----|

g |-------0------0------2-------2----2-2-----|

D |-----2-------------0--------------0-0-----|

A |---0--------------------------------------|

E |------------------------------------------|

si el norte fuera el sur.



G C G B7

Seriamos igual o tal vez un poco peor

Em

con las Malvinas por Groenlandia

C G

y en Guatemala un Disneylandia

D Em** C

y un Simon Bolivar rompiendo su secreto:

G

ahi les va la 187,

D C

fuera los yankees por decreto!!





G D C G

Las barras y las estrellas se adueñan de mi bandera

D C G

Y nuestra libertad no es otra cosa que una ramera

D/F# B7 Em Em D C

y si la deuda externa nos robo la primavera

G D C

al diablo la geografia se acabaron las fronteras



e |------------------------------------------------------1-----|

b |---------3-------------3--------------3-------------1-------|

g |-------0---0---------2---2----------0---0---------2---------|

D |-----0-------0-----0-------0------2-------2-----3-----------|

A |------------------------------------------------------------|

E |---3-------------2--------------0-------------1-------------|

Si el norte fuera el sur seria la misma porqueria,



e |----------------------------------------------------------|

b |-------3-----------3-------------3------------------------|

g |-----0---0-------2---2---------0---0--------2-------------|

D |---0-------0---0-------0-----2-------2----3------0--------| INTRO

A |----------------------------------------------------------|

E |-3-----------2-------------0-------------1-----3----------|

yo cantaria un rap y esta cancion no existiría

El acorde de Si El Norte Fuera El Sur de Ricardo Arjona es una versión de la canción original realizada por colaboradores/usuarios de Coveralia.

¿Has encontrado algún error en esta página? Envíanos tu corrección del acorde