música
Buscador

Acorde de Shuffle Your Feet - Black Rebel Motorcycle Club

Letra de Shuffle Your Feet



E G5 E

e|-0-----|------------------------------|

B|--0----|------------------------------|

G|---0---|-1-1--0-0-0-0--1--1-1-1--1----|

D|----0--|-2-2--0-0-0-0--2--2-2-2--2----|

A|-----0-|-2-2--2-2-2-2--2--2-2-2--2----|

E|------0|-0-0--3-3-3-3--0--0-0-0--0----|

*small intro stroke



e|-9^^-7-9-|-12sb-10-10---10-|--------|

B|-9^^-7-9-|------------12---|--------|

G|---------|-----------------|--------|

D|---------|-----------------|--------|

A|---------|-----------------|--------|

E|---------|-----------------|-3h5-5/-|



Troughout the song is different electric parts repeated.

Hard to tell exatly, but to mess around with different scales in E-dur



E G5 E

Everything is going down

E G5 E

nothing seem to feel same

E G5 E

no one seem to know my name

G5 A E

no one seem to go my way



E G A

but who knows if i'll see you again

E G A

but who knows if i'll see you again

http://www.coveralia.com/acordes/shuffle-your-feet-black-rebel-motorcycle-club.php



One for the so named dreamers... (same as first)



E G A

Who knows if I'll see you again

E G A

Who knows if I'll see you again



For the next part you'll have to change rhythm in

order to make it sound correct. Hit the two first E's hard.

Otherwise just listen to the song.



E G A

Time won't save our souls

E G A

Time won't save my soul

E G A

Time won't save our souls

E G A

Time won't save my soul



Repeat the chords as earlier



I never thought I'd see it coming

I never thought I'd ever know

Nothing seems to take me over

Nothing seems to let me go



Who knows if I'll see you again

Who knows if I'll see you again





Letra subida por: Anónimo

Discos en los que aparece este acorde: Howl

El acorde de Shuffle Your Feet de Black Rebel Motorcycle Club es una versión de la canción original realizada por colaboradores/usuarios de Coveralia.

¿Has encontrado algún error en esta página? Envíanos tu corrección del acorde