música
Buscador

Acorde de Shredded Humans - Cannibal Corpse

Letra de Shredded Humans

  Intro             Riff 1 (4x)         Riff 2 (4x)

||---------------|>|-----------------|>|-----------------|

||---------------|>|-----------------|>|-----------------|

||---------------|>|-----------------|>|-----------------|

||--5--5---5--5--|>|-5-----5-----5---|>|-4-------3-------|

||--3--3---3--3--|>|-3-----3-----3---|>|-2-------1-------|

||---------------|>|---4-3---4-3---4-|>|---3-2-0---3-2-0-|

* * * * * * * * * * *



Then play Riff 1 (4x) and Riff 2 (4x)



Riff 2a (4x)

|-----------------|

|-----------------|

|-----------------|

|-8-----8-----8---|

|-6-----6-----6---|

|---7-6---7-6---7-|

* * * * *



Then play Riff 2 (4x)



Riff 3 (9x) Fill 1 Riff 4 (4x)

|----------------------|>|-------------|>|-----------|

|----------------------|>|-------------|>|-----------|

|----------------------|>|-------------|>|-----------|

|----------------------|>|-------------|>|-----------|

|------66”55”------54-|>|------66”55”-|>|--4-3-5-4--|

|-3333”------3333”-32-|>|-3333”-------|>|--2-1-3-2--|

* * * *

Riff 5 (4x)

|-------------------|

|-------------------|

|-------------------|

|-3-----4-----------|

|-1-4-3-2-3---------|

|---2-1---1-0-0-0-0-|

* * * *



Then play Riff 4 (4x)



Riff 6 (2x)

|-------------------------------------------------|

|-------------------------------------------------|

|-------------------------------------------------|

|-------------------------------------------------|

|-2-----3-----4-----5-----2-----3-----4-----6-----|

|---4-4---4-4---4-4---4-4---4-4---4-4---4-4---4-4-|

* * * * * * * * * * * * * * * *



Then play Riff 4 (4x), Riff 6 (2x), Riff 4 (10x)



Riff 6a (12x)

|-------------------|>

|-------------------|>

|-------------------|>

|-5-4---4-----------|>

|-3-2-3-2-3---------|>

|-----1---1-0-0-0-0-|>

* * * *



Then play: Riff 5 (2x), Riff 6a (4x), Riff 4 (2x)



Riff 7 (4x)

|-------------------------------------------------------|

|-------------------------------------------------------|

|-------------------------------------------------------|

|-------------------------------------------------------|

|-111”000”111”000”111”000”-----111”000”111”000”444”333”-|

|-------------------------1111”-------------------------|

http://www.coveralia.com/acordes/shredded-humans-cannibal-corpse.php



Then play Riff 3 (8x), Fill 1, Riff 4 (2x), Riff 7 (4x), Riff 3 (8x), Fill 1, Riff 4 (2x)



Riff 8 (9x)

|-------------------------|

|-------------------------|

|-------------------------|

|---------332---555-------|

|---665-------------------|

|-3-----3-----3-----0-0-0-|

* * *

Riff 9 (2x)

|-------------------------------------|

|-------------------------------------|

|-------------------------------------|

|-------------------------------333---|

|-444-333---------444-333-------111---|

|-222-111-0-0-0-0-222-111-0-0-0-------|

* * * * * * *



Riff 9a (2x)

|---------------------------------|

|---------------------------------|

|---------------------------------|

|---------------------------------|

|-444-333---------777-888---------|

|-222-111-0-0-0-0-555-666-0-0-0-0-|

* * * * * * * *



Then play Riff 9 (2x), Riff 9a (3x), Riff 4 (31x)





Song Structure:



Intro

Riff 1 (4x)

Riff 2 (4x)

Riff 1 (4x)

Riff 2 (4x)

Riff 2a (4x)

Riff 2 (4x)

Riff 3 (9x)

Fill 1

Riff 4 (4x)

Riff 5 (4x)

Riff 4 (4x)

Riff 6 (2x)

Riff 4 (4x)

Riff 6 (2x)

Riff 4 (10x)

Riff 6a (12x)

Riff 5 (2x)

Riff 6a (4x)

Riff 4 (2x)

Riff 7 (4x)

Riff 3 (8x)

Fill 1

Riff 4 (2x)

Riff 7 (4x)

Riff 3 (8x)

Fill 1

Riff 4 (2x)

Riff 8 (9x)

Riff 9 (2x)

Riff 9a (2x)

Riff 9 (2x)

Riff 9a (3x)

Riff 4 (31x)

Discos en los que aparece este acorde: Eaten Back To Life , 15 Year Killing Spree Disc 1 , Hammer Smashed Face

El acorde de Shredded Humans de Cannibal Corpse es una versión de la canción original realizada por colaboradores/usuarios de Coveralia.

¿Has encontrado algún error en esta página? Envíanos tu corrección del acorde