música
Buscador

Acorde de Se Va - Miguel Gallardo

INTRO



F F7 F F7 Dm Dm7 Dm Dm7



e ---5---3---1---3--1----5--3--1----5---3---1--3--1----5--3--1------

B -----3---1---1----------------------3---1-------------------------

G ------------------------------------------------------------------

D ------------------------------------------------------------------

A ------------------------------------------------------------------

E ------------------------------------------------------------------



Gm Gm7 Gm Gm7 C C7 C C7 F



e ---6---5---3---1--3----6--5--3----3---1---0-----------0--1--3--8--

B -----5---3---1----------------------1---1-----3--1----------------

G --------------------------------------------3------2--------------

D ------------------------------------------------------------------

A ------------------------------------------------------------------

E ------------------------------------------------------------------





VERSO



F F7 F

Se va, .......

F7 Dm

y se lleva en la maleta

Dm7 Dm

tantos sueños, tantas metas

Dm7 Gm Gm7 Gm Gm7 Gm

que te prometió ayer





C C7 C

Se va, .......

C7 Gm

diciendo que está cansado

Gm7 C

que no puede estar atado

C7 F C C7

siempre a la misma mujer





F F7 F

Se va, .......

F7 Dm

y te deja abandonada

Dm7 Dm

esperando la llegada

Dm7 Gm Gm7 Gm Gm7 Gm

del hijo que llevas de él



C C7 C

Se va, .......

C7 Gm

y se aparta de tu lado

Gm7 C

como un cobarde asustado

C7 F C

diciendo que va a volver





CORO



C7 Gm Gm7 C

No te rompas el alma mujer (Se va, Se va , se va)

C7 F F7 Dm

que no vale la pena (Se va, Se va , se va)

Dm7 Gm Gm7 C

no derrames tu llanto por él (Se va, Se va , se va)

C7 F F7 Dm

que no vale la pena (Se va, Se va , se va)

Dm7 Gm

y abre tu corazón

Gm7 C C7 C

a la luz de ese amor

C7 F F7 D

que en tu vientre ya espera



SOLO



G G7 G G7 Em Em7 Em Em7



e ---7---5---3---5--3----7--5--3----7---5---3--5--3-----7--5--3-----

B -----5---3---3----------------------5---3-------------------------

G ------------------------------------------------------------------

D ------------------------------------------------------------------

A ------------------------------------------------------------------

E ------------------------------------------------------------------



Am Am7 Am Am7 D D7 D D7 G



e ---8---7---5---3--5----8--7--5----5---3---2----0------2--3--5--10-

B -----7---5---3----------------------3---3---1-----3---------------

G ----------------------------------------------------4-------------

D ------------------------------------------------------------------

A ------------------------------------------------------------------

E ------------------------------------------------------------------



http://www.coveralia.com/acordes/se-va-miguel-gallardo.php

VERSO





G G7 G

Se va, .......

G7 Em

y te crees que el mundo acaba

Em7 Em

que vivir no vale nada

Em7 Am Am7 Am Am7 Am

y que vas a enloquecer



D D7 D

Se va, .......

D7 Am

y encontrarás la alegría

Am7 D

y la fuerza cada día

D7 G D D7

para saber lo que hacer





G G7 G

Se va, .......

G7 Em

te entregaste como eres

Em7 Em

sin reservas, ni papeles

Em7 Am Am7 Am Am7 Am

y la vida te engañó



D D7 D

Se va, .......

D7 Am

y es mejor perder a tiempo

Am7 D

que guardar un sentimiento

D7 G D

que no existe entre los dos





CORO



D7 Am Am7 D (Se va, Se va , se va)

No te rompas el alma mujer

D7 G G7 Em (Se va, Se va , se va)

que no vale la pena

Em7 Am Am7 D

no derrames tu llanto por él (Se va, Se va , se va)

D7 G G7 Em

que no vale la pena (Se va, Se va , se va)

Em7 Am

y abre tu corazón

Am7 D D7 D

a la luz de ese amor

D7 G G7 D

que en tu vientre ya espera





CORO



D7 Am Am7 D

No te rompas amiga por él (Se va, Se va , se va)

D7 G G7 Em

que no vale la pena (Se va, Se va , se va)

Em7 Am Am7 D

no te creas que quiere volver (Se va, Se va , se va, Se va, Se va)

D7 G G7 Em

ya no vale la pena (Se va, Se va , se va, Se va, Se va)

Em7 Am

vuelve a ser la mujer

Am7 D D7 D

con coraje y valor

D7 G

que hace tiempo tú eras





SOLO



G G7 G G7 Em Em7 Em Em7



e ---7---5---3---5--3----7--5--3----7---5---3--5--3-----7--5--3-----

B -----5---3---3----------------------5---3-------------------------

G ------------------------------------------------------------------

D ------------------------------------------------------------------

A ------------------------------------------------------------------

E ------------------------------------------------------------------



G G7 G G7 G



e ---7---5---3---5--3----7--5--3-3--

B -----5---3---3--------------------

G ----------------------------------

D ----------------------------------

A ----------------------------------

E ----------------------------------



FIN

Letra subida por: Anónimo

Discos en los que aparece este acorde: Tesoros De Coleccion , Dedicado , 20 Autenticos Exitos Originales

El acorde de Se Va de Miguel Gallardo es una versión de la canción original realizada por colaboradores/usuarios de Coveralia.

¿Has encontrado algún error en esta página? Envíanos tu corrección del acorde