música
Buscador

Acorde de Se Mi Esclava - Los Guarros

Intro riff 1 sobre Am



Am (riff 1)

Tus ojos dorados me desangran



le ponen un precio a mi cuerpo, a mi cuerpo,

D G5 C5 Am

se MI esclava, MI esclava,

E7 D G Am riff + E7

soy tu esclavo, soy tu dios, se mi ama.-





Le das dolor a mi carne,

le doy placer a tu alma, a tu alma

se MI esclava, MI esclava,

soy tu esclavo, soy tu dios, se mi ama.-





Solo



se MI esclava, MI esclava,

soy tu esclavo, soy tu dios, se mi ama.-





Solo



Se mi esclava...



soy tu dios...



http://www.coveralia.com/acordes/se-mi-esclava-los-guarros.php

soy tu esclavo...



se mi esclava...











Riff 1 Am intro



E--------------------------------

B--------------------------------

G--5-----------5-----------------

D---5-7-5-----5--5-7-5-----------

A----------5-7----------5-6-5-3--

E--------------------------------







Riff 2



E7

E-----------------------------

B--5--------------------------

G---5-------------------------

D-----7-5-5-7-----------------

A--------7------7-3--0-----0--

E---------------------3-0-3---



Letra subida por: Anónimo

Discos en los que aparece este acorde: Pampas Lisergicas

El acorde de Se Mi Esclava de Los Guarros es una versión de la canción original realizada por colaboradores/usuarios de Coveralia.

¿Has encontrado algún error en esta página? Envíanos tu corrección del acorde