música
Buscador

Acorde de Say Goodnight - Bullet For My Valentine

Letra de Say Goodnight





Matt Tuck: Guitar 1

Michael Paget: Guitar 2



Key: F



Tuning: Standard EADGBe



Chords used:

Dm - xx0231

Bb - x13331

F - 133211

C - x32010

Eb - x68886





Intro:



Matt:

Dm C

e|-------------------------|---------|

B|-------------------------|---------|

G|-------------------------|---------|

D|---0-2-0-3-2---0-2-0-3-2-|---2-3-2-| x4

A|-5-----------5-----------|-3-------|

E|-------------------------|---------|



Dm Bb C

e|-----------------|---------|---------|

B|-----------------|---------|---------|

G|-----------------|---------|---------|

D|---0-2-0-3-2---0-|---2-3-2-|---5-3-2-| x4

A|-5-----------5---|-1-------|-3-------|

E|-----------------|---------|---------|



Bb C Dm

C

e|-------------------------|---------|-------------------------|---------|

B|-----1---3-1---------1---|---------|-------------------------|---------|

G|-------------3-----------|-----2---|-----2-------2-------2---|-----2---|

D|---3---3-------3---3---3-|---2---3-|---3---3---3---3---3---3-|---2---3-|

A|-1---------------1-------|-3-------|-5-------5-------5-------|-3-------|

E|-------------------------|---------|-------------------------|---------|



Bb C Dm

e|-------------------------|---------|----|

B|-----1---3-1---------1---|---------|----|

G|-------------3-----------|-----2---|-2--|

D|---3---3-------3---3---3-|---2---3-|-3--|

A|-1---------------1-------|-3-------|-5--|

E|-------------------------|---------|----|





Michael:

Dm Bb C Dm

C

e|--------|---------|---------|--------|---------|---------|

B|--------|---------|---------|--------|---------|---------|

G|-2--0h2-|-3--2--0-|-------5-|--------|---------|---------|

D|--------|---------|-3--2----|-3--2h3-|-5--3--2-|-3--2----|

A|--------|---------|---------|--------|---------|-------3-|

E|--------|---------|---------|--------|---------|---------|



Dm Bb C Dm

C

e|--------|---------|---------|-----------|------|---|

B|--------|---------|---------|-----------|------|---|

G|--------|---------|---------|-2--3----2-|------|---|

D|--------|-2-----2-|-3--2--3-|------5----|-3--5-|-2-|

A|-5--3h5-|----5----|---------|-----------|------|---|

E|--------|---------|---------|-----------|------|---|



Bb C Dm

C

e|-13-12-----------13-12----------|---|-13-12----15-17--13--12--12--13--12h13-|----|

B|-------13--------------13-------|---|-------13------------------------------|-13-|

G|----------14--------------14----|---|---------------------------------------|----|

D|-------------15--------------12-|---|---------------------------------------|----|

A|--------------------------------|---|---------------------------------------|----|

E|--------------------------------|---|---------------------------------------|----|



Bb C Dm

e|-13-12-----------13-12----------|---|-13-12----15-17--13--12--13--15--13--12h13-12-|

B|-------13--------------13-------|---|-------13-------------------------------------|

G|----------14--------------14----|---|----------------------------------------------|

D|-------------15--------------12-|---|----------------------------------------------|

A|--------------------------------|---|----------------------------------------------|

E|--------------------------------|---|----------------------------------------------|



Verse 1:



Sing:

Dm Bb C

Heaven's waiting for you

Dm Bb

Just close your eyes

C Dm

And say goodbye

Bb C

Here in your pause

Dm Bb(hold)

Go on and on and on

Dm Bb C

I live my life in misery

Dm Bb C

I sacrificed this world to hold you

Dm Bb C

No breath left inside of me

Dm Bb C

http://www.coveralia.com/acordes/say-goodnight-bullet-for-my-valentine.php

Shattered glass keeps falling





Chorus 1:



Sing:

Bb

Say....

C Dm

Say goodnight

C Bb

Just in time

C Dm

Say goodnight...





Michael Guitar Solo 1: Dm--Bb-C x3, Dm--Bb(hold)





Verse 2:



Sing:

Dm Bb C

Flowers laid out for you

Dm Bb C Dm

So many colors leave me blind

Bb C Dm

Seeing your face reflect

Bb(hold)

from a babies eyes

Dm Bb C

I live my life in misery

Dm Bb C

I sacrificed this world to hold you

Dm Bb C

No breath left inside of me

Dm Bb C

Shattered glass keeps falling





Chorus 2:

Bb

Say....

C Dm

Say goodnight

C Bb

Just in time

C Dm Bb F C

Say goodnight...



Bridge:



Growl:

Dm

So here I am

Bb F C

You're inside of me

Dm

So here I am

Bb Eb

Our worlds may suffer

Dm

So here I am

Bb F C

You're inside of me

Dm

So here I am

Bb Eb

Our worlds may suffer





Verse 3:



Sing:

Dm Bb F

Here I am with you

C Dm Eb

I'm there til the end

Dm Bb F

Memories are told and

C Dm Eb

So farewell my friend



Growl:

Farewell my friend!





Michael Guitar Solo 2: Dm--Bb-C x4





Bass Solo: Dm x4





(Repeat Verse 3)





Outro:



Growl:

Dm Eb

FAREWELL MY FRIEND!

Dm Eb

MY FRIEND

Dm Eb

MY FRIEND

Dm Eb F C Dm(hold)

MY FRIEND





Letra subida por: Anónimo

El acorde de Say Goodnight de Bullet For My Valentine es una versión de la canción original realizada por colaboradores/usuarios de Coveralia.

¿Has encontrado algún error en esta página? Envíanos tu corrección del acorde