música
Buscador

Acorde de Say Goodbye - Chris Brown

Letra de Say Goodbye





Tabbed by: Wayne S

Tuning: Standard EADGBE



Capo: 1



Chords:



Bm: 224432

G: 320033 or 355433

D: x00232

A: 002220

Em: 022000



Intro:



[Bm, A, Em, D] x3

[G, A]

[Bm, A, Em, D] x3

[G, A]



Everything else:



[Bm, G, D, A] - repeat throughout the song



2) Tuning: Standard EADGBE ; Capo: 6



Chords:



Em: 022000

C: 032010

G: 320033

D: x00232

Gm: 355333



Intro:



[Em, D, Gm, G] x3

[C, D]

[Em, D, Gm, G] x3

[C, D]



Everything else:



[Em, C, G, D] - repeat throughout the song



[Intro]:



Can either be picked as shown below, or played using chords:



Am G Dm C

e|-----------------0-1-----1-0-------|

B|1-----1-0------3-------3-----3-3-1-|

G|----2--------0-------2-------------|

D|--2--------0-------0---------------|

A|0--------------------------3-------|

E|--------3--------------------------|



e|-----------------0-1-----1-0-------|

B|1-----1-0------3-------3-----3-3-1-|

G|----2--------0-------2-------------|

D|--2--------0-------0---------------|

A|0--------------------------3-------|

E|--------3--------------------------|

[1]



e|-----------------0-1-----1-0-------|

B|1-----1-0------3-------3-----3-3-1-|

G|----2--------0-------2-------------|

D|--2--------0-------0---------------|

A|0--------------------------3-------|

E|--------3--------------------------|

[2] [3]



F G

e|3-----------3-3----------------|

B|----1-1-1-1---------3----0---0-|

G|--2------------------------2---|

D|3-----------------5------------|

A|----------------5--------------|

E|--------------3----------------|

[4]



Am G Dm C

e|-----------------0-1-----1-0-------|

B|1-----1-0------3-------3-----3-3-1-|

G|----2--------0-------2-------------|

D|--2--------0-------0---------------|

A|0--------------------------3-------|

E|--------3--------------------------|



e|-----------------0-1-----1-0-------|

B|1-----1-0------3-------3-----3-3-1-|

G|----2--------0-------2-------------|

D|--2--------0-------0---------------|

A|0--------------------------3-------|

E|--------3--------------------------|



e|-----------------0-1-----1-0-------|

B|1-----1-0------3-------3-----3-3-1-|

G|----2--------0-------2-------------|

D|--2--------0-------0---------------|

A|0--------------------------3-------|

E|--------3--------------------------|

[5] [6]



F G

e|3-----------3-3----------------|

B|----1-1-1-1---------3----0---0-|

G|--2------------------------2---|

D|3-----------------5------------|

A|----------------5--------------|

E|--------------3----------------|

[7]



[Weird part right at the start]:



e|--------------|

B|-3s5------3s5-|

G|--------------|

D|--------------|

A|--------------|

E|--------------|



[1] [2]

Look we gotta talk

[3]

Dang I know

I know it's just

It's just...

[4]

Some things I gotta get of my chest alright....



[5]

Yeahhhh...

[6] [7]

Whoa, whoa, whoa, oh, whoa, whoa, whoa, oh, whoa...

http://www.coveralia.com/acordes/say-goodbye-chris-brown.php

Listen..



[Verse 1]:



Am

Baby come here and sit down, let's talk

F

I got a lot to say so I guess I'll start by

C

Saying that I love you,

G

But you know, this thing ain't been

Am

No walk in the park for us

(Am)

I swear it'll only take a minute

F

You'll understand when I finish, yeah

C

And I don't wanna see you cry

G

But I don't wanna be the one

(G)

to tell you a lie so



[Hook]



Am

How do you let it go? When you,

F

You just don't know? What's on,

C

The other side of the door

G

When you're walking out, talk about it

Am F

Everything I tried to remember to say

(F)

Just went out my head

C

So I'ma do the best I can

G

to get you to understand

(Am)

'cause I know



[Chorus]:



Am F

There's never a right time to say goodbye

C

But I gotta make the first move

G

'Cause if I don't you gonna start hating me

Am

Cause I really don't feel the way

(Am)

I once felt about you

F

Girl it's not you, it's me

C G

I kinda gotta figure out what I need (oh)



Am F

There's never a right time to say goodbye

C

But we know that we gotta go

G

Our separate ways

Am F

And I know it's hard but I gotta do it,

(F)

And it's killing me

C

Cause there's never a right time

G (Am)

Right time to say goodbye



[Verse 2]:



Am

Girl I know your heart is breaking

F

And a thousand times I

C

Found myself asking, "Why? Why?"

G

Why am I taking so long to say this?

Am

But trust me, girl I never

F

Meant to crush your world

(F)

And I never

C G

Thought I would see the day we grew apart

(G) (Am)

And I wanna know



[Repeat Hook]



[Repeat Chorus]



[Bridge]:



Am

Listen to your heart

(Am)

Girl you know,

F

We should be apart, baby I

C

I just can't do it

G

I, I just can't do it



Am

Listen to your heart

(Am)

Girl you know,

F

We should be apart, baby I

C

I just can't do it

G Am

And sometimes it makes me wanna cry

F C

Oh, oh, oh, oh, oh, oh, oh

G

Do you hear me crying?

Am F C

Oh, oh, oh

G

There's never a right time



[Repeat Chorus] x2



Letra subida por: Anónimo

Discos en los que aparece este acorde: Chris Brown , , Say Goodbye (Cd Single)

El acorde de Say Goodbye de Chris Brown es una versión de la canción original realizada por colaboradores/usuarios de Coveralia.

¿Has encontrado algún error en esta página? Envíanos tu corrección del acorde