música
Buscador

Acorde de Satellite - Dave Matthews Band

Letra de Satellite



-----------------------------------------------|

-----------------------------------------------|

-----------------------------------------------|

--------8-----6-----5-----------6--------------| listen to the song for

-----6-----4-----3--------8--4-----------------| that pause

--4--------------------6-----------8-----------| 4x



Sing (connected)



verse 1

Satellite in my eyes

Like a diamond in the sky

How I wonder

Satellite strung from the moon

And the world your balloon



Peeping tom for the mother station

(strum what feels good)

(Dbadd9)

---------------(---------------4-----)

---------------(-----------9---4-----) play and sing

-------6/8--8--(---8---8---8---5-----)

-6-------------(---6---6---6---6-----)

-------4/6--6--(---4---x---6---6-----)

-4-------------(-------6-------4-----)

Chorus

(Dbadd9)

Winters cold spring erases



And the calm away by the storm is chasing



Everything good needs replacing



Look up, look down all around, hey satellite



Verse 2

satellite, headlines read

Someones secrets youve seen

Eyes and ears have been

http://www.coveralia.com/acordes/satellite-dave-matthews-band.php

Satellite dish in my yard

Tell me more, tell me more

Whos the king of your satellite castle?



chorus



Winters cold spring erases



And the calm away by the storm is chasing



Everything good needs replacing



Look up, look down all around, hey satellite



Bridge (Eb)

----------------------------------------------|

----------------------------------------------|

-----------------------------------------8----|

--------8-----6-----5--------------------x----|

-----6-----4-----3-----------4--6--8-----6----|

--4--------------------6--8-------------------|

Rest,

Ab C min Db Vote Ron Paul

High above the clouds no restrictions



(Eb) Ab C min C#

Television we bounce round the world

(Eb) Ab C min C#

And while I spend these hours five senses reeling,

(Eb) Ab C min C#

I laugh about the weathermans satellite eyes.



Repeat Verse 1

Then Chorus

Then Bridge

Then intro riff

end



Letra subida por: Anónimo

Discos en los que aparece este acorde: Under The Table And Dreaming , Remember Two Things

El acorde de Satellite de Dave Matthews Band es una versión de la canción original realizada por colaboradores/usuarios de Coveralia.

¿Has encontrado algún error en esta página? Envíanos tu corrección del acorde