música
Buscador

Acorde de Sangre Fría - Horcas

Letra de Sangre Fría

Intro:

^v^v^v^v^v^v^v^.............

1|--------------------------------|

2|--------------------------------|

3|--------------------------------|x4

4|--------------------------------|

5|--------------------------------|

6|--4-0-0-0-2-0-0-0-3-0-0-0-3-4---|

PM............................



Riff 1:

1|---------------------------------------------------------------|

2|---------------------------------------------------------------|

3|---------------------------------------------------------------|

4|-9-------9-------9-------9-------------------------------------|

5|-7-------7-------7-------7-------------------------------------|

6|---0-0-0---0-0-0---0-0-0---0-0-0--4-0-0-0-2-0-0-0-3-0-0-0-3-4--|

PM.... ..... ..... ..... ............................



Riff 2:Estribillo

1|------------------------------------|

2|------------------------------------|

3|------------------------------------|

4|-9----------------------------------|

5|-7-7-7-7-7-7--7----------5----------|

6|--------------5-5-5-5-5--3-3-3-3-3--|

PM........ ......... .......



http://www.coveralia.com/acordes/sangre-fria-horcas.php

ANTES DEL SOLO:

1|--------------------------------------|

2|--------------------------------------|

3|--------------------------------------|

4|-9--9--9--9--9-9-9-9------------------|

5|-7--7--7--7--7-7-7-7------------------|

6|---------------------0-0-0-0-0-0-0----|

PM.............



DURANTE EL SOLO:

1|-----------------|

2|-----------------|

3|-----------------|X2

4|-----9-----------|

5|-----7--7----5---|

6|-0-0----5----3---|

PM..



1|---------------------------------------|

2|---------------------------------------|

3|---------------------------------------|X3

4|-9---------9---------9----------9-9-9--|

5|-7---------7---------7----------7-7-7--|

6|---0-0-0-0---0-0-0-0---0-0-0-0---------|



ESTRIBILLO

FINAL COMO INTRO

Letra subida por: Anónimo

Discos en los que aparece este acorde: Vence

El acorde de Sangre Fría de Horcas es una versión de la canción original realizada por colaboradores/usuarios de Coveralia.

¿Has encontrado algún error en esta página? Envíanos tu corrección del acorde