música
Buscador

Acorde de Saldré A Buscar El Amor - Miguel Gallardo

INTRO





Gm Dsus4 Gm Bb F Bb F



e -----3-2-3-2-3--5-6------6-5-6-5-6-8--10---------

B ---3-------------------6-------------------------

G -------------------------------------------------

D -------------------------------------------------

A -------------------------------------------------

E -------------------------------------------------



F Bb F Bb Dm Gm D Gm D Gm



e ---15-13------15-13------8-----------------------

B ---------15---------15-----11-8---11-8--11-8-----

G -------------------------------------------------

D -------------------------------------------------

A -------------------------------------------------

E -------------------------------------------------





VERSO



Gm Dsus4 Gm

Saldré a buscar al amor

Dsus4 Cm G Cm

con las uñas, con los dientes

F Cm F

saldré a buscar al amor

Bb Dm Bb

que no sea indiferente



Dm G

Saldré a buscar al amor

Cm

a ese amor que a mi me quiera

F Cm F

porque yo quiero a ese amor

Bb Dm D

que aunque me cueste, amor sea..., Ese amor





CORO



Gm Dsus4 Gm

Amor, amor, amor, amor

Bb F Bb

amor, amor, amor, amor

D Gm

saldré a buscarte a donde quieras

D# D Gm

saldré a buscarte amor aunque me hieras



Gm Dsus4 Gm

Amor, amor, amor, amor

Bb F Bb

amor, amor, amor, amor

D Gm

saldré a buscarte mientras pueda

D# D Gm

saldré a buscarte amor aunque me duelas





INTRO

http://www.coveralia.com/acordes/saldre-a-buscar-el-amor-miguel-gallardo.php





VERSO



Gm Dsus4 Gm

Saldré a buscar al amor

Dsus4 Cm G Cm

Porque aún me queda ternura

F Cm F

saldré a buscar al amor

Bb Dm Bb

con un grito de aventura



Dm G

Saldré a buscar al amor

Cm

a ese amor que siendo tierno

F Cm F

tenga la fuerza del mar

Bb Dm D

y el deseo de los tiempos..., A ese amor





CORO



Gm Dsus4 Gm

Amor, amor, amor, amor

Bb F Bb

amor, amor, amor, amor

D Gm

saldré a buscarte a donde quieras

D# D Gm

saldré a buscarte amor aunque me hieras



Gm Dsus4 Gm

Amor, amor, amor, amor

Bb F Bb

amor, amor, amor, amor

D Gm

saldré a buscarte mientras pueda

D# D Gm

saldré a buscarte amor aunque me duelas





INTRO



Gm Dsus4 Gm Bb F Bb F



e -----3-2-3-2-3--5-6------6-5-6-5-6-8--10---------

B ---3-------------------6-------------------------

G -------------------------------------------------

D -------------------------------------------------

A -------------------------------------------------

E -------------------------------------------------



F Bb F Bb Dm Gm D Gm D Gm



e ---15-13------15-13------8-----------------------

B ---------15---------15-----11-8---11-8--11-8-----

G -------------------------------------------------

D -------------------------------------------------

A -------------------------------------------------

E -------------------------------------------------

Letra subida por: Anónimo

Discos en los que aparece este acorde: 30 Exitos Insuperables

El acorde de Saldré A Buscar El Amor de Miguel Gallardo es una versión de la canción original realizada por colaboradores/usuarios de Coveralia.

¿Has encontrado algún error en esta página? Envíanos tu corrección del acorde