música
Buscador

Acorde de Sailing - Mike Oldfield

Letra de Sailing

INTRO

******

C G



---------------------------------------------------

VERSE 1

********

C G

Let me out, I can't breathe

C

Gotta get out of this concrete hole

C G

I'm wrecked and I'm decked

C

I've gotta break free before I lose control



---------------------------------------------------

CHORUS

*******

C G

Cast the lines away

Am

From the dock at the harbour bay

G

It's a fine bright day

F

And the wind is blowing our way



---------------------------------------------------

VERSE 2

********

C G

Set me free, I can't be

C

Locked in a cage before I loose my mind

C G

I'm Wired, And I'm tired

C

Gotta lose my chains and leave it all behind



---------------------------------------------------

CHORUS

*******

C G

So cast the lines away

Am

From the dock at the harbour bay

G

All those cares and worries and woes

F

You can save them for another day

C G G C

Because we're sailing, sailing



01:10

Slide

e|---s------|

B|-1012----|

G|-------12-|

D|----------|

A|----------|

E|----------|

C G G F

Yes we're sailing, sailing



01:17

Slide

e|------------------|

B|--s-s-----s-------|

G|-4/54-0-512-~~~~|

D|------------------|

A|------------------|

E|------------------|



---------------------------------------------------

VERSE 3

********

C G

Give me space, I'm on fire

C

Banging my head against a hard brick wall

C G

And I'm gone, so long

C

You can leave a message but I'll never call



---------------------------------------------------

CHORUS

*******

C G

Cast the lines away

Am

From the dock at the harbour bay

C G

It's a fine bright day

F

And the wind is blowing away

C G G C

Lets go sailing, sailing



01:57

Slide

e|---s------|

B|-1012----|

G|-------12-|

D|----------|

A|----------|

E|----------|

C G G F

Yes we're sailing, sailing



Slide

e|-----------------|------------------|

B|---s---20---s--s-|--s-s-----s-------|

G|-2021----2117-|-4/54-0-512-~~~~|

D|-----------------|------------------|

A|-----------------|------------------|

E|-----------------|------------------|



---------------------------------------------------

02:10

GUITAR SLIDE SOLO

******************

e|-----s------|---------------------------|------------|----------------------|

B|----35-----|----s----------------------|------------|--s-------------------|

G|-0------5~~-|-0-57-4-0-------------0-0-|--------0-5-|-35-5-5-5-5-3-5-10-9-|

D|------------|-------------0-------0-----|-0----2-----|-35-5-5-5-5-3-5-10-9-|

A|------------|-----------3-------2-------|---3-3------|----------------------|

E|------------|---------------3-3---------|------------|----------------------|





e|--------12-12-10-8-10-|---s---15---s---------|---s-----------------|

B|---s----12------------|-1315----1513-12----|-1718-17-15-17----s-|

G|-1012----------------|-------------------12-|----------------17--|

D|-1012----------------|----------------------|---------------------|

A|----------------------|----------------------|---------------------|

E|----------------------|----------------------|---------------------|



---------------------------------------------------



CHORUS

*******

C G

Cast the lines away

Am

From the dock at the harbour bay

G

There's no cares no worries no woes

F

http://www.coveralia.com/acordes/sailing-mike-oldfield.php

And the wind is blowing away

C G G C

Lets go sailing, sailing



02:43

Slide

e|---s------------|-----------------|

B|-1012----------|---s---20---s--s-|

G|-------12----12-|-2021----2117-|

D|----------12----|-----------------|

A|----------------|-----------------|

E|----------------|-----------------|



C G G F

Yes we're sailing, sailing



02:51

Slide

e|------------|

B|--s-----s---|

G|-810-1012-|

D|------------|

A|------------|

E|------------|



C G G F

sailing, sailing



No Slide s h p s h p

e|----------1315--13-12-12-13-12----|-------12-1213-12-10-10-12-10----|

B|----13-15-----------------------15-|----15-------------------------13-|

G|-12--------------------------------|-12-------------------------------|

D|-----------------------------------|----------------------------------|

A|-----------------------------------|----------------------------------|

E|-----------------------------------|----------------------------------|



No Slide s h p b

e|----------1315--13-12-12-13-12----|-22-22-22--22-22-22-22-22-22-22-|

B|----13-15-----------------------15-|--------------------------------|

G|-12--------------------------------|--------------------------------|

D|-----------------------------------|--------------------------------|

A|-----------------------------------|--------------------------------|

E|-----------------------------------|--------------------------------|



s

e|-20-20-22-22-20--|

B|------------------|

G|------------------|

D|------------------|

A|------------------|

E|------------------|



---------------------------------------------------

BRIDGE

*******

C G

You know that if you want to come with me



e|---s------------|

B|-1012----------|

G|-------12----12-|

D|----------12----|

A|----------------|

E|----------------|



We can sail away



e|-----------------|

B|---s---20---s--s-|

G|-2021----2117-|

D|-----------------|

A|-----------------|

E|-----------------|



C

Cast the line

G

If you've got time, come with me baby



e|---s---10------s--|

B|-1012----12-108-|

G|------------------|

D|------------------|

A|------------------|

E|------------------|



F

Ohh Ohhhh

C G

You know if you don't like it



e|---s------------|

B|-1012----------|

G|-------12----12-|

D|----------12----|

A|----------------|

E|----------------|



You can ride inside

C

If you like this is were you hide

G

Ahhh you can leave it all behind

F

Come on in, catch a line

C G

Wind me in, Wind me in oh yea



e|---s------|

B|-1012----|

G|-------12-|

D|----------|

A|----------|

E|----------|

C

Ohhh Yeaa

G F

Whooooo Ahhhhh



e|---s-|

B|-14-|

G|-----|

D|-----|

A|-----|

E|-----|



C G G C

Sailing, Ow Ow sailing



e|---s---16---s---16---s---16---s---16----|--s------------|

B|-1618----1618----1618----1618----16-|1618---s--s---|

G|----------------------------------------|------1714/17-|

D|----------------------------------------|---------------|

A|----------------------------------------|---------------|

E|----------------------------------------|---------------|



C G G F

Sailing, sailing



e|---s---16---s-----------------------------|-------------|

B|-1618----1816----s---16---s---------s---|--s-s-s-s-s--|

G|-----------------1517----1715-----1517-|-45/45/45-|

D|--------------------------------17--------|-------------|

A|------------------------------------------|-------------|

E|------------------------------------------|-------------|



C G C



El acorde de Sailing de Mike Oldfield es una versión de la canción original realizada por colaboradores/usuarios de Coveralia.

¿Has encontrado algún error en esta página? Envíanos tu corrección del acorde