música
Buscador

Acorde de Rumba De Barcelona - Manu Chao

Letra de Rumba De Barcelona



Se toca solo con tres acordes



Bm A F#

--2-- --0-- --2--

--3-- --2-- --2--

--4-- --2-- --3--

--4-- --2-- --4--

--2-- --0-- --4--

--2-- --0-- --2--



Tambien puedes tocar estos punteos que te pongo, que

en el concierto se oyen con la trompeta magica de Roy

Paci y el Trombón de Gianny Salazar Camacho



(son los que van antes de que empieza a cantar):



Bm A

|--8--8-8-8-8--4--8-7-7--4|

|-------------------------|

|-------------------------|

|-------------------------|

|-------------------------|

|-------------------------|

F# Bm

|--7--7-7-7-7--5--7-8-8--5|

|-------------------------|

|-------------------------|

|-------------------------|

|-------------------------|

|-------------------------|



Bm A

|--8--8-8-8-8--4--8-7-7--4|

|-------------------------|

|-------------------------|

|-------------------------|

|-------------------------|

|-------------------------|

F# Bm

|--7--5-7-8--7-5-|

|----------------|

|----------------|

|----------------|

http://www.coveralia.com/acordes/rumba-de-barcelona-manu-chao.php

|----------------|

|----------------|



y Empieza:



Bm A

Rambla pa'qui Rambla pa'lla

F# Bm

Esa la Rumba de Barcelona



Bm A

Rambla pa'qui Rambla pa'lla

F# Bm

Esa la Rumba de Barcelona



Bm A

Te mercé Bibi Malena

F# Bm

Te mercé perro chaval

Bm A

Te mercé la policia

F# Bm

Te mercé Abdu Lila



Bm A

Rambla pa'qui Rambla pa'lla

F# Bm

Esa la Rumba de Barcelona



Bm A

Rambla pa'qui Rambla pa'lla

F# Bm

Esa la Rumba de Barcelona



Bm A

Te mercé Mademoiselle

F# Bm

Mademoiselle d'Avignon

Bm A

Te mercé o Bixo Bahía

F# Bm

Te mercé Escudellers



Letra subida por: Anónimo

Discos en los que aparece este acorde: Radio Bemba Sound System , Baionarena , Baionarena (Dvd) , Babylonia En Guagua (Dvd)

El acorde de Rumba De Barcelona de Manu Chao es una versión de la canción original realizada por colaboradores/usuarios de Coveralia.

¿Has encontrado algún error en esta página? Envíanos tu corrección del acorde