música
Buscador

Acorde de Ruedas De Metal - Riff

G|-----------------------------------------------------------------|

D|-----------------------------------------------------------------|

A|-----------------------------------------------------------------|

E|-5-5-5-5-5-5-5-5-5-5-5-5-5-5-5-5-5-5-5-5-5-5-5-5-5-5-5-5-5-5-5-5-|



G|-----------------------------------------------------------------|

D|-----------------------------------------------------------------|

A|-----------------------------------------------------------------|

E|-5-5-5-5-5-5-5-5-5-5-5-5-5-5-5-5-5-5-5-5-5-5-5-5-5-5-5-5-5-5-5-5-|



“Hacia las colinas, de la oscuridad

G|-----------------------------------------------------------------|

D|-----------------------------------------------------------------|

A|-----------------------------------------------------------------|

E|-8--7--5-5-5-5-5-5-5-5-5-5-5-5-5-5-5-5-5-5-5-5-5-5-5-5-5-5-5-5-5-|

mi carroza mueve sus ruedas de

G|-----------------------------------

D|-----------------------------------

A|--------------------5----5---5-----

E|-5----3----3---3-------------------

metal!”

G|-----------------------------------------------------------------|

D|-----------------------------------------------------------------|

A|-----------------------------------------------------------------|

E|-5-5-5-5-5-5-5-5-5-5-5-5-5-5-5-5-8--7--5-5-5-5-5-5-5-5-5-5-5-5-5-|

“Un lugar distinto, tengo que saber

G|-----------------------------------------------------------------|

D|-----------------------------------------------------------------|

A|-----------------------------------------------------------------|

E|-8--7--5-5-5-5-5-5-5-5-5-5-5-5-5-8--7--5-5-5-5-5-5-5-5-5-5-5-5-5-|

“Si en verdad existe o lo imagine

G|-----------------------------------

D|-----------------------------------

A|--------------------5----5---5-----

E|-5----3----3---3-------------------

imagine!”

G|-----------------------------------------------------------------|

D|-----------------------------------------------------------------|

A|-----------------------------------------------------------------|

E|-5-5-5-5-5-5-5-5-5-5-5-5-5-5-5-5-5-5-5-5-5-5-5-5-5-5-5-5-5-5-5-5-|

“Nosotros los reyes, de este pesado rock,

G|-----------------------------------------------------------------

D|-----------------------------------------------------------------

A|--------------------5----5---5---------------------5----5---5--5-

E|-5----7----7---7----------------5----7----7---7------------------

estamos alerta por cualquier

G|------------------------------

D|------------------------------

A|---------------5----5---5-----

E|-3----3---3-------------------

situación!”

G|-----------------------------------------------------------------|

D|-----------------------------------------------------------------|

A|-----------------------------------------------------------------|

E|-5-5-5-5-5-5-5-5-5-5-5-5-5-5-5-5-5-5-5-5-5-5-5-5-5-5-5-5-5-5-5-5-|

“Aquí no hay estaciones, de comunicación,

G|-----------------------------------------------------------------

D|-----------------------------------------------------------------

A|--------------------5----5---5---------------------5----5---5--5-

E|-5----7----7---7----------------5----7----7---7------------------

y esta un poco difícil interceptar

G|------------------------------

D|------------------------------

A|---------------5----5---5-----

E|-3----3---3-------------------

el sol!”

G|--------------------------------------------------------------------|

D|--------------------------------------------------------------------|

A|---------------------------------------------------------------7----|

E|-5-5-5-5-5-5-5-5-5-5-5-5-5-5-5-5-8--7--5-5-5-5-5-5-5-5-5-5-5-5------|

1:33 (4 veces) 2:08 (16 veces)

G|--------------------------------------------------|---------------|

D|--------------------------------------------------|---------------|

A|-7-7-7-7-7-7-7-7-7-7-7-7-7-7-7-7-7----5/7--5/7----|-7/d-----------|

E|--------------------------------------------------|-------0--0-0-0|

(12 veces)

G|----------------------------------------------------|

D|----------------------------------------------------|

A|----------------------------------------------------|

E|-0--0--0--0--0--0--0--0-3-4-5--5--5--5--5--5--5-3-5-|

4:09

G|-----------------------------------------------------------------|

D|-----------------------------------------------------------------|

A|-----------------------------------------------------------------|

E|-0--0--0--0--0--0--0--0-----5--5--5--5--5--5--5--5--0------------|



G|-----------------------------------------------------------------|

D|-----------------------------------------------------------------|

A|-----------------------------------------------------------------|

E|-5-5-5-5-5-5-5-5-5-5-5-5-5-5-5-5-5-5-5-5-5-5-5-5-5-5-5-5-5-5-5-5-|



G|-----------------------------------------------------------------|

D|-----------------------------------------------------------------|

A|-----------------------------------------------------------------|

E|-5-5-5-5-5-5-5-5-5-5-5-5-5-5-5-5-5-5-5-5-5-5-5-5-5-5-5-5-5-5-5-5-|



http://www.coveralia.com/acordes/ruedas-de-metal-riff.php

G|-----------------------------------

D|-----------------------------------

A|--------------------5----5---5-----

E|-5----3----3---3-------------------



G|-----------------------------------------------------------------|

D|-----------------------------------------------------------------|

A|-----------------------------------------------------------------|

E|-5-5-5-5-5-5-5-5-5-5-5-5-5-5-5-5-5-5-5-5-5-5-5-5-5-5-5-5-5-5-5-5-|

“Todo lo que tengo, no te lo voy a dar,

G|-----------------------------------------------------------------|

D|-----------------------------------------------------------------|

A|-----------------------------------------------------------------|

E|-8--7--5-5-5-5-5-5-5-5-5-5-5-5-5-5-5-5-5-5-5-5-5-5-5-5-5-5-5-5-5-|

pero compartiremos por lo menos la

G|-----------------------------------

D|-----------------------------------

A|--------------------5----5---5-----

E|-5----3----3---3-------------------

mitad!”

G|-----------------------------------------------------------------|

D|-----------------------------------------------------------------|

A|-----------------------------------------------------------------|

E|-5-5-5-5-5-5-5-5-5-5-5-5-5-5-5-5-8--7--5-5-5-5-5-5-5-5-5-5-5-5-5-|

“Nosotros los reyes, de este pesado rock,

G|-----------------------------------------------------------------

D|-----------------------------------------------------------------

A|--------------------5----5---5---------------------5----5---5--5-

E|-5----7----7---7----------------5----7----7---7------------------

estamos alerta por cualquier

G|------------------------------

D|------------------------------

A|---------------5----5---5-----

E|-3----3---3-------------------

situación!”

G|--------------------------------------------------------------------|

D|--------------------------------------------------------------------|

A|---------------------------------------------------------------7----|

E|-5-5-5-5-5-5-5-5-5-5-5-5-5-5-5-5-8--7--5-5-5-5-5-5-5-5-5-5-5-5------|

“Aquí no hay estaciones, de comunicación,

G|-----------------------------------------------------------------

D|-----------------------------------------------------------------

A|--------------------5----5---5---------------------5----5---5--5-

E|-5----7----7---7----------------5----7----7---7------------------

esta un poco difícil interceptar

G|------------------------------

D|------------------------------

A|---------------5----5---5-----

E|-3----3---3-------------------

el sol!”

G|-----------------------------------------------------------------|

D|-----------------------------------------------------------------|

A|-----------------------------------------------------------------|

E|-5-5-5-5-5-5-5-5-5-5-5-5-5-5-5-5-8--7--5-5-5-5-5-5-5-5-5-5-5-5-5-|

(3 veces) Final

G|--------------------------------------------------|---------------------|

D|--------------------------------------------------|---------------------|

A|-7-7-7-7-7-7-7-7-7-7-7-7-7-7-7-7-7----5/7--5/7----|-7-7-7-7-7-7-7-7-7---|

E|--------------------------------------------------|---------------------|



/: slide

/d: slide down



Ruedas de metal (Pappo)



Hacia las colinas,

de la oscuridad,

mi carroza mueve,

sus ruedas de metal.



Un lugar distinto,

tengo que saber,

si en verdad existe,

o lo imaginé.



Nosotros los reyes,

de este pesado rock,

estamos alerta,

por cualquier situación.



Aquí no hay estaciones,

de comunicación,

y está un poco difícil,

interceptar el sol.



Sus ruedas de metal,

hacia la oscuridad,

sus ruedas de metal,

mi carroza mueve...



Todo lo que tengo,

no te lo voy a dar,

pero compartiremos,

por lo menos la mitad.



Letra subida por: Anónimo

Discos en los que aparece este acorde: En Vivo En Obras 17/12/1985 , Ruedas De Metal , En Accion , Clasico

El acorde de Ruedas De Metal de Riff es una versión de la canción original realizada por colaboradores/usuarios de Coveralia.

¿Has encontrado algún error en esta página? Envíanos tu corrección del acorde