música
Buscador

Acorde de Rompo El Dolor - Horcas

Letra de Rompo El Dolor



Intro: Riff 1



Gtr. 1 x5

e|--------------------------------------------------|--------------------------------------------------|

B|--------------------------------------------------|--------------------------------------------------|

G|--------------------------------------------------|--------------------------------------------------|

D|------------------------------------------353535--|------------------------------------------353535--|

A|-5--3-3-3-3-3--5--3-3-3-3-3--5--3-3-3-3-3---------|-5--3-3-3-3-3--5--3-3-3-3-3--5--3-3-3-3-3-------3-|

E|--------------------------------------------------|--------------------------------------------------|



La guitarra 2 empieza la 2da. vez

Gtr. 2 x4

e|--------------------------------------------------|--------------------------------------------------|

B|--------------------------------------------------|--------------------------------------------------|

G|--------------------------------------------------|--------------------------------------------------|

D|------------------------------------------353535--|------------------------------------------353535--|

A|-5--3-3-3-3-3--5--3-3-3-3-3--5--3-3-3-3-3---------|-5--3-3-3-3-3--5--3-3-3-3-3--5--3-3-3-3-3-------3-|

E|--------------------------------------------------|--------------------------------------------------|



Riff 2



Gtr. 1 & 2 x4

e|---------------|

B|---------------|

G|-7-------7-----|

D|-5-7-5---5-7-9-|

A|---5-3-----5-7-|

E|---------------|



Riff 3



Gtr. 1 & 2 x4

e|-------------------------------------------------------------------------------------------------|

B|-------------------------------------------------------------------------------------------------|

G|-------------------------------------------------------------------------------------------------|

D|-9-9-9-9-9-9-9-9-9-9-9-9-7-7-7-7-7-7-7-7-7-7-7-7-6-6-6-6-6-6-6-6-6-6-6-6-5-5-5-5-5-5-5-5-5-5-5-5-|

A|-7---------7-----7-----7-5---------5-----5-----5-4---------4-----4-----4-3---------3-----3-----3-|

E|-------------------------------------------------------------------------------------------------|



Riff 2 (x4)



Riff 3 (x4)



Riff 1 (x4)



Riff 2



http://www.coveralia.com/acordes/rompo-el-dolor-horcas.php

Gtr. 1 & 2 x3

e|---------------|-----------------------|

B|---------------|-----------------------|

G|-7-------7-----|-7-------7-------7-----|

D|-5-7-5---5-7-9-|-5-7-5---5-7-9---5-7-9-|

A|---5-3-----5-7-|---5-3-----5-7-----5-7-|

E|---------------|-----------------------|



Solo



Gtr. 2 en solo

x10 x2 x2

e|---------------------|---------------------|---------------------|--------------------|

B|---------------------|---------------------|---------------------|--------------------|

G|---------------------|---------------------|---------------------|--------------------|

D|---------------------|-5-------5---------6-|---------------------|-5-4--5-4--5-4------|

A|-4-------4---------5-|-3-0-0-0-3-0-0-0-0-4-|-4-------4---------5-|-3-2--3-2--3-2--5-4-|

E|-2-0-0-0-2-0-0-0-0-3-|---------------------|-2-0-0-0-2-0-0-0-0-3-|----------------3-2-|



Gtr. 1 x6

e|--------------------------------------------------|--------------------------------------------------|

B|--------------------------------------------------|--------------------------------------------------|

G|--------------------------------------------------|--------------------------------------------------|

D|------------------------------------------353535--|------------------------------------------353535--|

A|-5--3-3-3-3-3--5--3-3-3-3-3--5--3-3-3-3-3---------|-5--3-3-3-3-3--5--3-3-3-3-3--5--3-3-3-3-3-------3-|

E|--------------------------------------------------|--------------------------------------------------|



La guitarra 2 empieza la 3ra vez

Gtr. 2 x4

e|--------------------------------------------------|--------------------------------------------------|

B|--------------------------------------------------|--------------------------------------------------|

G|--------------------------------------------------|--------------------------------------------------|

D|------------------------------------------353535--|------------------------------------------353535--|

A|-5--3-3-3-3-3--5--3-3-3-3-3--5--3-3-3-3-3---------|-5--3-3-3-3-3--5--3-3-3-3-3--5--3-3-3-3-3-------3-|

E|--------------------------------------------------|--------------------------------------------------|



Riff 3 (x4)



Riff 2



Gtr. 1 & 2 x3

e|---------------|-----------------------|

B|---------------|-----------------------|

G|-7-------7-----|-7-------7-------7-----|

D|-5-7-5---5-7-9-|-5-7-5---5-7-9---5-7-9-|

A|---5-3-----5-7-|---5-3-----5-7-----5-7-|

E|---------------|-----------------------|

Letra subida por: Anónimo

Discos en los que aparece este acorde: Eternos

El acorde de Rompo El Dolor de Horcas es una versión de la canción original realizada por colaboradores/usuarios de Coveralia.

¿Has encontrado algún error en esta página? Envíanos tu corrección del acorde