música
Buscador

Acorde de Rojo - Barricada

Letra de Rojo



b ---- bending

/ ---- deslizar para abaju

\ ---- desliar para arriba

P.M -- Mutear (pal mute)







en la intro, una guitarra empieza asi:



( RIFF 1 )



e ---------5-4-------------------

b --5-4-5------7--(5)------------

g ------------------------------- esto se repite continuamente

d -------------------------------

a -------------------------------

E ------------------------------- NOTA: la nota q va entre parentesis, kiere decir q

corresponde a la primera del riff





Más tarde, la otra guitarra le acompaña con esto:



( acompañamiento RIFF 1 )



e -------------------------------

b -------------------------------

g ----7--------------------------

d ----7---7---5------------------

a ----5---7---5------------------

E --------5---3------------------





Al cabo de unas cuantas veces (paso de contalas), el boni

empieza a cantar y le acompaña esto mas o menos:



( RIFF 2 )



e -----------------------------------

b -----------------------------------

g ---6--4-------2--4--6--4-----2--4--

d ---6--4-------2--4--6--4-----2--4--

a ---4--2-------0--2--4--2-----0--2--

E -----------------------------------





Luego vuelve a hacer el RIFF 1 con el acompañamiento, seguido

por el RIFF 2 otra vez y despues otra vez el RIFF 1





http://www.coveralia.com/acordes/rojo-barricada.php

ahora hace algo parecido a esto:



P.M.

e --------------------------------

b --------------------------------

g -----2-----------6-6---6-6---6-- El primer acorde (LA) se toka

d -----2-----------6-6---6-6---6-- a toda hostia repetidas veces (las q te suene)

a -----0-----------4-4---4-4---4--

E --------------------------------



Juez y vengador...



Esto se repite asta q dice 'VENCER UNA VEZ MAS...', donde

sigue:



P.M. P.M.

e -----------------------------------------

b -----------------------------------------

g -------6----------4----------------------

d -------6----------4---------------------- Tb se tokan estos a toda hostia sin parar

a -------4----------2---------------------- (la otra guitarra hace algo tambien pero no se el q)

E -----------------------------------------





Ahora canta 'SEÑALADO...' mientras toka el RIFF 1 sin

acompañamiento, hasta q grita 'ENTRASTE A MATAAAAAAAAR', donde

se introduce el acompañamiento ese del RIFF 1 q son 3 acordes.





Y la cancion acaba reproduciendo este punteillo q no ye chungo

y bajando el volumen:



e ------------------------------------------------------------------10b-------

b ----------------------12--------------------12------------------------------

g -----------9--11--12-------------9--11--12-------------9--11--12------------

d ----9--11-----------------9--11-----------------9--11-----------------------

a ----------------------------------------------------------------------------

E ----------------------------------------------------------------------------



e ----------------------------------------------------------------------------

b ----------------------12--------------------12------------------------------

g -----------9--11--12-------------9--11--12-------------9--11--12--11\9------

d ----9--11-----------------9--11-----------------9--11-------------------11--

a ----------------------------------------------------------------------------

E ----------------------------------------------------------------------------







Letra subida por: Anónimo

El acorde de Rojo de Barricada es una versión de la canción original realizada por colaboradores/usuarios de Coveralia.

¿Has encontrado algún error en esta página? Envíanos tu corrección del acorde