música
Buscador

Acorde de Reventar O Morir (Bonus Track) - O'connor

Letra de Reventar O Morir  (Bonus Track)

NOTA: SEXTA CUERDA EN RE (d)

Intro: x4
e|------------------------------|
B|------------------------------|
G|------------------------------|
D|------------------------------|
A|------------------------------|
d|--2-0-2-2~-0-2-2~-0-2-0-5~-0--|


E5     G5 A5  E5  D5  E5 G5 A5
No hay lu-gar por don-de sa-lir,
E5 G5 A5  E5        F5
el in-fierno viene hasta aquí.
E5 G5 A5  E5 D5 E5  G5 A5
Si tu paz ya se ter-mi-nó
E5 G5 A5  E5 G5           A5
so-lo que-da reventar o morir


        C5           E5
Tiempos violentos en mí,
        C5          E5
no los puedo controlar
        D5
Solo estoy aquí
   C5
matando por vivir


Intro: x2


REPITE IGUAL

Puedo ser un gran anfitrión
B querés acercarte A E
titere de la sociedad
solo queda reventar o morir

Tu cabeza va a estallar
aunque quieras escapar
porque estoy aquí
matando por vivir


Pre-solo
e|----------------------------------------------------|
B|----------------------------------------------------|
G|----------------------------------------------------|
D|----------------------------------------------------|
A|----------------------------------------------------|
d|-2-0-2-2~-0-2-2~-0-2-2~-0-2-2~-0-2-2~-0-2-2~-0-2-2~-|


Solo Sobre Intro: x4


G5               A5       G5
Estoy aquí otra vez, esperándote


        C5           E5
Tiempos violentos en mi,
       C5          E5
no los puedo controlar
     C5            E5
Tu cabeza va a estallar
       C5          E5
aunque quieras escapar

        C5           E5
Tiempos violentos en mi,
       C5          E5
no los puedo controlar
     C5            E5
Tu cabeza va a estallar
       D5
porque estoy aquí
  A5
matando por vivir


Final sobre Intro y Fade Out


Notas con la Afinacion Drop D (sexta cuerda en RE)

   D   D#  E   F   F#  G   G#  A   A#  B   C    C#   D
e|---|---|---|---|---|---|---|---|---|---|----|----|----|
b|---|---|---|---|---|---|---|---|---|---|----|----|----|
g|---|---|---|---|---|---|---|---|---|---|----|----|----|
d|-0-|-1-|-2-|-3-|-4-|-5-|-6-|-7-|-8-|-9-|-10-|-11-|-12-|
a|-0-|-1-|-2-|-3-|-4-|-5-|-6-|-7-|-8-|-9-|-10-|-11-|-12-|
d|-0-|-1-|-2-|-3-|-4-|-5-|-6-|-7-|-8-|-9-|-10-|-11-|-12-|


Letra subida por: Anónimo

Discos en los que aparece este acorde: Vive Siempre...

El acorde de Reventar O Morir (Bonus Track) de O'connor es una versión de la canción original realizada por colaboradores/usuarios de Coveralia.

¿Has encontrado algún error en esta página? Envíanos tu corrección del acorde