música
Buscador

Acorde de Resistencia - Horcas

Letra de Resistencia

Intro:

1|--------------||------------------|-------------|

2|--------------||------------------|-------------|

3|--------------||----7-5---7-5-----|-------------|

4|--0--2--1--0--||--7-----7------7--|--0--2--1--0-|



Riff 1:

1|----------------------| |-----| |-----|

2|----------------------|x4|-----|x10|-----|x10

3|----------------------| |-----| |-----|

4|-0-0-0-0-0-0-0-0-0-0--| |-2---| |--1--|



Riff 2:

1|-----------------------------------------------|

2|-----------------------------------------------|

3|-----------------------------------------------|

4|-0-0-0-3-0-2-0-6-5-4--0-0-0-3-0-2-3-3-2-1-1-0--|



1|--------------|

2|--------------|

3|--------------|

http://www.coveralia.com/acordes/resistencia-horcas.php

4|--0--2--1--0--|



1|----------------------| |-----| |-----|

2|----------------------|x4|-----|x10|-----|x10

3|----------------------| |-----| |-----|

4|-0-0-0-0-0-0-0-0-0-0--| |-2---| |--1--|



1|------------------------------------------|

2|------------------------------------------|

3|-------------------2-3-2--4-5-4--3-4-3----||---|

4|--0-2-1--0-2-3-5-0-------2------1------0--||-0-|x8



1|--------------------------------------------------------|

2|--------------------------------------------------------|

3|----------7-7-------7-7-6-5-------------6-7-9-------7-5-|

4|--0(x9)-7-----0(x9)---------7-6--0(x9)---------0(x9)----|



Nota:eso es todo esta re facil

(echo por Lato el bajista de mi banda)

Letra subida por: Anónimo

Discos en los que aparece este acorde: Vence

El acorde de Resistencia de Horcas es una versión de la canción original realizada por colaboradores/usuarios de Coveralia.

¿Has encontrado algún error en esta página? Envíanos tu corrección del acorde