música
Buscador

Acorde de Remember December - Demi Lovato

Letra de Remember December

intro: 

E |-------------|

B |-------------|

G |-------------|

D |-3---5--6----|

A |-----------4-|X2

E |-------------|



F G G# C# (seguindo igual a intro)

I feel a separation coming on.

'Cause I know that you want to be moving on.



F Bb

And I wish that it would snow tonight

You pull me in, avoid a fight.

'Cause I feel,

F G G# C#

A separation coming on.



F G G# C#

Just prove that there is nothing left to try.

It's the truth.

I'd rather we'd just walk tonight.



F Bb

You kiss me with those open eyes.

It says so much.

It's no surprise, to you,

F G G# C#

but I've got something left to say.



Bb F C#

Don't surrender,surrender,surrender,

please remember,remember December.

F C#

We were so in love back then.

Are you listening

to what they say?

Don't go that way.

F Bb C#

Remember,remember,December.

Please remember. intro

Don't surrender.



F G G# C#

You said, you wouldn't let them change your mind.

'Cause we're here, together fire melts the ice.

F Bb

Our hearts are both on overdrive,

come with me let's run tonight.

Don't let,

these memories be left behind.



Bb F C#

http://www.coveralia.com/acordes/remember-december-demi-lovato.php

Don't surrender,surrender,surrender,

please remember,remember December.

F C#

We were so in love back then.

Are you listening

to what they say?

Don't go that way.

F Bb C#

Remember,remember,December.

Please remember.

Don't surrender.



solinho:

E |---------------------------|

B |---------------------------|

G |---------------------------| * D#

D |---------------------------|

A |------------------------4-3|

E |1-1-4-1-4-4-1-4-4-4-4*----|



F

I remember, us together,

with the promise, of forever.

We can do this,

fight the pressure.

Please remember December.



Don't surrender.



SOLO 2 (Fm C# x2)

E |--------------------------------------|

B |-----------------------------------14-|

G |-10---12---13--------10---12---13-----|

D |---------------11------------------11-|

A |--8---10---11---------8---10---11-----|

E |----------------9---------------------|



Bb F C#

Don't surrender,surrender,surrender,

please remember,remember December.

F C#

We were so in love back then.

Are you listening

to what they say?

Don't go that way.

F Bb C#

Remember,remember,December.



solinho

Please remember.

Don't surrender.

F (no fim)

Letra subida por: Anónimo

El acorde de Remember December de Demi Lovato es una versión de la canción original realizada por colaboradores/usuarios de Coveralia.

¿Has encontrado algún error en esta página? Envíanos tu corrección del acorde