música
Buscador

Acorde de Rebelión - Horcas

Letra de Rebelión

El tema se toca en RE (afinación)

Intro:

Unos segundos de caserolazo



1|-----------------------------------|

2|-----------------------------------|

3|-----------------------------------|

4|-2--2-2--2-2-----------------------|

5|-2--2-2--2-2----5/4-------4/3------|

6|-0--0-0--0-0----3/2--0-0--2/1------|

pm.. ...



Riff 1

1|---------------------------------------|

2|---------------------------------------|

3|---------------------------------------|

4|-2--2-2--2-2-------2--2-2--2-2---------|

5|-2--2-2--2-2----5--2--2-2--2-2----8-7--|

6|-0--0-0--0-0----3--0--0-0--0-0----6-5--|

pm... .....



Riff 2

1|-------------------------------------|

2|-------------------------------------|

3|-------------------------------------|

4|-2--2-2-2-2-2-----2--2-2-2-2-2-------|

5|-2--2-2-2-2-2--5--2--2-2-2-2-2--8-7--|

6|-0--0-0-0-0-0--3--0--0-0-0-0-0--6-5--|

http://www.coveralia.com/acordes/rebelion-horcas.php

pm........ .........



Repite

intro

Riff 1

Riff 2

Riff 3

Una pequeña pausa



Riff 4

1|-----------------------------|

2|-----------------------------|

3|-----------------------------|

4|---2-------------------------|

5|-5-2---------------5/7--8/7--|

6|-3-0--0-0-0-0-0-0--3/5--6/5--|

pm..........



solo: ?



Riff 1

Riff 2

Riff 3

Final con intro



AGUNTE HORCAS, CIVILE Y EL JACK DANIELS

Espero que les sirva

Letra subida por: Anónimo

Discos en los que aparece este acorde: Horcas

El acorde de Rebelión de Horcas es una versión de la canción original realizada por colaboradores/usuarios de Coveralia.

¿Has encontrado algún error en esta página? Envíanos tu corrección del acorde