música
Buscador

Acorde de Real Love - The Beatles

Letra de Real Love

Boys...				 alone...			    know...

E |-------------------------------|----------------------------------|---------------------

B |-11-11p-9p8-11----11-11p-9p8-7-|-4-6------------------------------|---------------------

G |-------------------------------|-----6-6-4-4-3----3-4-3-3-1-1-0-0-|---3-5--------3-5----

D |-------------------------------|----------------------------------|-5-----5----4-----4--

A |-------------------------------|----------------------------------|---------------------

E |-------------------------------|----------------------------------|---------------------



afraid...

E |-11--9-7--9-7--9-11----18-16-14-16/18--

B |---------------------------------------

G |---------------------------------------

D |---------------------------------------

A |---------------------------------------

E |---------------------------------------



(intro) ( Ebm Bb Ebm Bb )



Eb Gm

All my little plans and schemes

Cm F#5+

Lost like some forgotten dreams

Ab Fm Bb

Seems that all I really was doing

Eb Ab Eb Ab

Was waiting for you



Eb Gm

Just like little girls and boys

Cm F#5+

Playing with their little toys

Ab Fm Bb

Seems like all they really were doing

Eb Ab Eb Ab

Was waiting for love



Eb Abm

No need to be alone

Eb Abm

No need to be alone

Eb Cm Ab Bb

It's real love, It's real

Eb Cm Ab Bb

http://www.coveralia.com/acordes/real-love-the-beatles.php

Yes, it's real love, It's real



(intro)



Eb Gm

From this moment on I know

Cm F#5+

Exactly where my life will go

Ab Fm Bb

Seems like all I really was doing

Eb Ab Eb Ab

Was waiting for love



Eb Abm

No need to be alone

Eb Abm

No need to be alone

Eb Cm Ab Bb

It's real love, It's real

Eb Cm Ab Bb

Yes, it's real love, It's real



(solo) ( Fm C7 Fm Bb4 Bb )



Eb Gm

Though I've been in love before

Cm F#5+

But in my heart I wanted more

Ab Fm Bb

Seems like all I really was doing

Eb Ab Eb Ab

Was waiting for you



Eb Abm

No need to be alone

Eb Abm

No need to be alone

Eb Cm Ab Bb

It's real love, It's real

Eb Cm Ab Bb

Yes, it's real love, It's real

Discos en los que aparece este acorde: Anthology 2 , Greatest Hits Part 2: 1966-1970 , One (2015)

El acorde de Real Love de The Beatles es una versión de la canción original realizada por colaboradores/usuarios de Coveralia.

¿Has encontrado algún error en esta página? Envíanos tu corrección del acorde