música
Buscador

Acorde de Reacción - Horcas

Letra de Reacción





Introducción x 4:

E5 D#5

e|-----------------------|

B|-----------------------|

G|-----------------------|

D|-----------------------|X3

A|--7/6-6--6-6-6--6-6-6--|

E|--7/6-6--6-6-6--6-6-6--|

pm............



e|-----------------------------|

B|-----------------------------|

G|-----------------------------|

D|-----------------------------|

A|-----------------------------|

E|-4-4-4--7-7-7--1-1-1--4-4-4--|

pm..........................



Verso:

E D#5 G#5 G5 F5 D#5

e|-------------------| e|------------------|

B|-------------------| B|------------------|

G|-------------------| G|------------------|

D|-------------------|X3 D|------------------|

A|--7/6-6-6-6-6-6-6--| A|--6---5---3---6---|

E|--7/6-6-6-6-6-6-6--| E|--4---3---1---6---|

pm...........

No me importa sufrir

Si estoy ganando

Alimentándome del odio y el dolor



Si nada esta bien

Nunca me di cuenta

Es tu limitación lo que me hace mal



D#5 F#5 C#5

Soy lo que creo

e|--------------|

B|--------------|

G|--8p6-8/11-6--|

D|--------------|

A|--------------|

E|--------------|

D#5 F#5 C#5

Nunca me van ha hacer mal

e|--------------|

B|--------------|

G|--8p6-8-8--3--|

D|--------------|

A|--------------|

E|--------------|

D#5 F#5 C#5

Soy lo que creo

e|--------------|

B|--------------|

G|--8p6-8/11-6--|

D|--------------|

A|--------------|

E|--------------|

Nunca me van ha hacer mal

http://www.coveralia.com/acordes/reaccion-horcas.php

Como verso:

Me van ha hacer mal



No hay nada mas que hacer

No encuentro palabras

La envidia y el bajón es lo que me hace mal



Vos no querés saber

Como yo me siento

Si todo lo hago mal no me importa perder



D#5 F#5 C#5

Soy lo que creo

e|--------------|

B|--------------|

G|--8p6-8/11-6--|

D|--------------|

A|--------------|

E|--------------|

D#5 F#5 C#5

Nunca me van ha hacer mal

e|--------------|

B|--------------|

G|--8p6-8-8--3--|

D|--------------|

A|--------------|

E|--------------|

D#5 F#5 C#5

Soy lo que creo

e|--------------|

B|--------------|

G|--8p6-8/11-6--|

D|--------------|

A|--------------|

E|--------------|

D#5 F#5 C#5 B5 Bb5

Nunca me van ha hacer mal

D#5

Me van ha hacer mal



SOLO



Si no querés hablar

Me importa un carajo

No encuentro un lugar a donde escapar



No puedo continuar

Desconfiando de todos

La envidia y el bajón es lo que me hace mal



Soy lo que creo

Nunca me van ha hacer mal

Soy lo que creo

Nunca me van ha hacer mal



Como Intro:

Me van ha hacer mal

Me van ha hacer mal

Me van ha hacer mal

Me van ha hacer mal

Letra subida por: Anónimo

Discos en los que aparece este acorde: Horcas , Horcas Vive , La Maldicion Continua

El acorde de Reacción de Horcas es una versión de la canción original realizada por colaboradores/usuarios de Coveralia.

¿Has encontrado algún error en esta página? Envíanos tu corrección del acorde