música
Buscador

Acorde de Qué Tal, Homosexual? - Siniestro Total

Letra de Qué Tal, Homosexual?

                                    G5 G#5 A5              G5 G#5 A5
e|------------------------------------------------------------------------|
B|------------------------------------------------------------------------|
G|------------------------------------------------------------------------|
D|----------------------4-4--------------------4-4------------------------|
A|--------------------------7-7-4-4----------------7-7-4-4----------------|
E|------------------5-5--------------------5-5----------------------------|

          D5 A5
-¿Qué tal,     homosexual?
   D5  A5      G5       A5   D5 A5 D5 A5
-Pues hombre, no me va mal
          D5 A5
-¿Qué tal,     homosexual?
   D5  A5      G5       A5   D5 A5 D5
-Pues hombre, no me va mal

  B5
 La leche ha vuelto a subir
  C#5
me han robado el instrumental
D5             A5          G5          B5
  y están en huelga los obreros del metal
D5           A5         B5
  y hemos ganado el partido
      D5      E5    
como ves, no me va mal
                    |
                    A5              G5 G#5 A5              G5 G#5 A5
e|------------------------------------------------------------------------|
B|------------------------------------------------------------------------|
G|------------------------------------------------------------------------|
D|----------------------4-4--------------------4-4------------------------|
A|--------------------------7-7-4-4----------------7-7-4-4----------------|
E|------------------5-5--------------------5-5----------------------------|

          D5 A5
-¿Qué tal,     homosexual?
   D5  A5      G5       A5   D5 A5 D5 A5
-Pues hombre, no me va mal
          D5 A5
-¿Qué tal,     homosexual?
   D5  A5      G5       A5   D5 A5 D5
-Pues hombre, no me va mal

  B5 
 Hoy hay eclipse de sol
 C#5
la luna empieza a crecer
D5          A5         G5         B5
  y es el aniversario de Guadalcanal
D5         A5          B5
  y hace bueno este domingo
      D5      E5
como ves, no me va mal
                    |
                    A5              G5 G#5 A5              G5 G#5 A5  D5 A5
e|------------------------------------------------------------------------|
B|------------------------------------------------------------------------|
G|------------------------------------------------------------------------|
D|----------------------4-4--------------------4-4------------------------|
A|--------------------------7-7-4-4----------------7-7-4-4----------------|
E|------------------5-5--------------------5-5----------------------------|

Acordes:
G5       G#5      A5       D5       B5       C#5      E5
\___XXX/ \___XXX/ \___XXX/ \X___XX/ \X___XX/ \X___XX/ \X___XX/
3O|||||  4O|||||  5O|||||  5|O||||  2|O||||  4|O||||  7|O||||
 ||||||   ||||||   ||||||   ||||||   ||||||   ||||||   ||||||
 |OO|||   |OO|||   |OO|||   ||OO||   ||OO||   ||OO||   ||OO||
 ||||||   ||||||   ||||||   ||||||   ||||||   ||||||   ||||||


Letra subida por: Anónimo

Discos en los que aparece este acorde: Bailare Sobre Tu Tumba (2002)

El acorde de Qué Tal, Homosexual? de Siniestro Total es una versión de la canción original realizada por colaboradores/usuarios de Coveralia.

¿Has encontrado algún error en esta página? Envíanos tu corrección del acorde