música
Buscador

Acorde de Put Them To Death - Cannibal Corpse

Letra de Put Them To Death

Tune your guitar to Eb.



Riff1 (x8) 1a(x2) Riff2 (x4) Riff2a(x2)

-|-----------------|------|----------------|----------------------------------|

-|-----------------|------|----------------|----------------------------------|

-|-----------------|------|----------------|----------------------------------|

-|-----------------|------|----------------|----------------------------------|

-|6--2-3-4-5--2-3-4|6--5--|4h5-3h4-6-6--6-6|7/8-7/8--2-2-2-2--5/6-5/6-2-2-2-2-|

-|4--0-1-2-3--0-1-2|4--3--|--------4-4--4-4|5/6-5/6--0-0-0-0--3/4-3/4-0-0-0-0-|

p.m...............

Riff2 (x2)

Riff2a(x2)

Outro* Riff3 (x2)

-|------|--------------------------------|

-|------|--------------------------------|

-|------|--------------------------------|Gtr1

-|6-5-4-|-----------------------------33-|

-|6-5-4-|232255223322---2332255223322----|

-|------|-------------4------------------|

| |

| |

|-------------------------------|

|-------------------------------|

|-------------------------------|Gtr2

|-----------------------------3-|

|-------------6---------------1-|

|-------------4-----------------|

Riff3 (x8)



http://www.coveralia.com/acordes/put-them-to-death-cannibal-corpse.php

Riff4a Riff4b(x4)

-|----------------------------------|---------|--------|

-|----------------------------------|---------|--------|

-|----------------------------------|---------|--------|

-|----------------------------------|-------4-|--------|

-|3-------3-------3-------3-------2-|3--4-3-2-|3-4-3-2-|

-|1-x-x-x-1-x-x-x-1-x-x-x-1-x-x-x-0-|1--2-1---|1-2-1-0-|

p.m................

Riff4b(without palm muting)

Riff5

-|-------|

-|-------|

-|-------|

-|-------|

-|2------|

-|0------|



Riff2a(x8)



Riff2b(x2)

-|-------------|------------|

-|-------------|------------|

-|-------------|------------|

-|-------------|------------|

-|7-8----------|5-6---------|

-|5-6-00000000-|3-4-00000000|

Riff 3 (x2)

Discos en los que aparece este acorde: Eaten Back To Life , 15 Year Killing Spree Disc 1

El acorde de Put Them To Death de Cannibal Corpse es una versión de la canción original realizada por colaboradores/usuarios de Coveralia.

¿Has encontrado algún error en esta página? Envíanos tu corrección del acorde