música
Buscador

Acorde de Psicosis - Horcas

Letra de Psicosis

Acordes Intro: G#m  F#  E  F#



e|---------------------------------------------------------->

B|-14b16--14b1614-12-11------17-16-------------------------->

G|----------------------11---11-11/9-9/8/9--8h9p8-6--------->

D|--------------------------------------------------9-8h9--->

A|---------------------------------------------------------->

E|---------------------------------------------------------->



--------------------------------------|

--------------------------------------|

--1-----------------------------------|

--8--8h9-8----------------------------|

-----------9-9----9-9-7-6-6h7-9-7-6---|

--------------------------------------|



G#5 G#5



Riff 1

e|-------------------------------|

B|-------------------------------|

G|-------------------------------|

D|-------------------------------| x 4

A|-6---6--4--6--7--7-7-7--7-7-7--|

E|-6---6--4--6--7--7-7-7--7-7-7--|

pm.............



Riff 2

e|-------------------------------| e|-------------------------------|

B|-------------------------------| B|-------------------------------|

G|-------------------------------| G|-------------------------------|

D|-------------------------------| D|-------------------------------|

A|-6------------------6--7-------| A|-6------------------6--9-7-----|

E|-4-4-4-4-4-4-4-4-4--6--7-------| E|-4-4-4-4-4-4-4-4-4--6--9-7-----|

pm................. pm.................

Riff 3

e|-------------------------------| e|-------------------------------|

B|-------------------------------| B|-------------------------------|

G|-------------------------------| G|-------------------------------|

D|-------------------------------| D|-------------------------------|

A|-6------------------6--7-------| A|-6------------------6--9-7-9-9-|

E|-4-4-4-4-4-4-4-4-4--6--7-------| E|-4-4-4-4-4-4-4-4-4--6--9-7-7-9-|

pm................. pm.................



G#5 F#5

Ahora puedes ver

E5 F#5 E5 F#5

Pero arde la garganta

G#5 F#5 E5 F#5

La promesa no se cumplió.



Te preguntaran

Que estas esperando

Si ya no es tiempo de cambiar.



Como riff 1:

Es como un juego

Sucio disfraz

http://www.coveralia.com/acordes/psicosis-horcas.php

Nadie te enseña

Te aturdirán.



Mas allá Mas allá

e|------------------------------------------------|

B|------------------------------------------8-----|

G|--------------------6-----6------9---8-9--8-----|

D|-6--8-9-6-8-9-----8-----8----6-8---6------------|

A|---------------9------9-------------------------|

E|------------------------------------------------|



extrañas

e|------------------------------------------------|

B|------------------------------------------11----|

G|--------------------6-----6------9---8-9--11----|

D|-6--8-9-6-8-9-----8-----8----6-8---6------------|

A|---------------9------9-------------------------|

E|------------------------------------------------|



No mires atrás

Y no sientas miedo

Si nadie hoy piensa igual.



Los afectos van

Juntos de la mano

Pero vos ¿donde estas?



Es como un juego

Sucio disfraz

Nadie te enseña

Te aturdirán



Mas allá, mas allá

arderás

Mas allá, mas allá

extrañas



Solo



solo de bajo como intro



Es como un juego

Sucio disfraz

Nadie te enseña

Te aturdirán



Mas allá, mas allá

arderás

Mas allá, mas allá x 2

extrañas



Como Riff 2

Psicosis

No mires atrás



Termina con Riff 3

Letra subida por: Anónimo

Discos en los que aparece este acorde: Horcas

El acorde de Psicosis de Horcas es una versión de la canción original realizada por colaboradores/usuarios de Coveralia.

¿Has encontrado algún error en esta página? Envíanos tu corrección del acorde