música
Buscador

Acorde de Proibida Pra Mim (Grazon) - Charlie Brown Jr.

Letra de Proibida Pra Mim (Grazon)

Tom: B

Afinação: Eb Ab Db Gb Bb Eb





Intro:



F# C# B

F|---------|-----|---------|

C|---------|-6-6-|-4-4-4-4-|

G|-4-4-4-4-|-4-4-|-2-2-2-2-|

D|-2-2-2-2-|-----|---------|



( F# C# B )



Solo intro 4x:



D#|------------------0-------------------|

A|----------------------|rapidão|-------|

F|----------2---2/5---5-(4-4-4-4)-------|

C|-2h4--4-4---4-----------------7-4-----|





E B

Ela achou meu cabelo engraçado

C#m A

Proibida pra mim NO WAY!





D#|-(12)-----|

A|-----(12)-|





E B

Disse que não podia ficar,

C#m A

Mas levou a serio o que eu falei



(Marcão - notas oitavas) (2x e cai pro refrão)



D#|---|-----|---|------|----|-------|-------------|

A|---|-----|---|------|----|-------|-------------|

F|-9-|-9/11|-11|-11/13|-13-|-13/14-|-14-14-14-14-|

C|-x-|-x-x-|-x-|--x-x-|--x-|--x-x--|-x—-x--x--x--|

G|-7-|-7/9-|-9-|--9/11|-11-|-11/12-|-12-12-12-12-|

D|---|-----|---|------|----|-------|-------------|





E B

Eu vou fazer de tudo que eu puder

C#m A

Eu vou roubar essa mulher pra mim

E B

Eu posso te ligar a qualquer hora

C#m A

Mas eu nem sei seu nome



Refrão 2x:

Tadeu Patolla: E B C#m A



Marcão - riff junto da base:



E B C#m A

D#|-x-x-x-x-|-x-x-x-x-|-x-x-x-x-|-x-x-x-x-|

A|-5-5-4-4-|-5-5-4-4-|-5-5-4-4-|-5-5-4-4-|

F|-4-4-4-4-|-4-4-4-4-|-4-4-4-4-|-4-4-4-4-|

C|-2-2-2-2-|-2-2-2-2-|-2-2-2-2-|-2-2-2-2-|

G|-2-2-2-2-|-2-2-2-2-|-2-2-2-2-|-2-2-2-2-|

D|---------|---------|---------|---------|





E B

Se não eu quem vai fazer você feliz?

C#m A

Se não eu quem vai fazer você feliz?



Marcão: depois do refrão - arranjo na 2ª vez



E B C#m A

D#|-------------|-------------|-----------|------------------------|

A|-12-12-12-12-|-12-12-12-12-|---12---12-|---12-(deixa o som soar)|

F|-9--9--9--9--|-9--9--9--9--|-9----9----|-9----------------------|

C|-9--9--9--9--|-9--9--9--9--|-----------|------------------------|

G|-------------|-------------|-----------|------------------------|

D|-------------|-------------|-----------|------------------------|





(repete intro)



E B

Eu me flagrei pensando em você,





D#|-(12)-----|

A|-----(12)-|





C#m A

Em tudo o que eu queria te dizer



Marcão: abafado durante esta parte enquanto o outro violão continua fazendo SKA)

(4x)

D|----------|----------------------|

A|----------|----------------------|

F|-7-8-10-8-|--7-8-7--7-8-7--7-8-7~|(já cai nas oitavas)

C|----------|-8------8------8------|

G|----------|----------------------|

D|----------|----------------------|



E B

Numa noite especialmente boa,

C#m A

Não a nada mais que a gente possa fazer



Marcão: notas oitavas 2x depois cai no refrão

http://www.coveralia.com/acordes/proibida-pra-mim--grazon--charlie-brown-jr-.php



D#|---|-----|---|------|----|-------|-------------|

A|---|-----|---|------|----|-------|-------------|

F|-9-|-9/11|-11|-11/13|-13-|-13/14-|-14-14-14-14-|

C|-x-|-x-x-|-x-|--x-x-|--x-|--x-x--|-x—-x--x--x--|

G|-7-|-7/9-|-9-|--9/11|-11-|-11/12-|-12-12-12-12-|

D|---|-----|---|------|----|-------|-------------|





E B

Eu vou fazer de tudo que eu puder

C#m A

Eu vou roubar essa mulher pra mim

E B

Eu posso te ligar a qualquer hora

C#m A

Mas eu nem sei seu nome



Refrão 2x:



E B C#m A

D#|-x-x-x-x-|-x-x-x-x-|-x-x-x-x-|-x-x-x-x-|

A|-5-5-4-4-|-5-5-4-4-|-5-5-4-4-|-5-5-4-4-|

F|-4-4-4-4-|-4-4-4-4-|-4-4-4-4-|-4-4-4-4-|

C|-2-2-2-2-|-2-2-2-2-|-2-2-2-2-|-2-2-2-2-|

G|-2-2-2-2-|-2-2-2-2-|-2-2-2-2-|-2-2-2-2-|

D|---------|---------|---------|---------|



E B

Se não eu quem vai fazer você feliz?

C#m A

Se não eu quem vai fazer você feliz?





E B C#m A

D#|-------------|-------------|-----------|------------------------|

A|-12-12-12-12-|-12-12-12-12-|---12---12-|---12-(deixa o som soar)|

F|-9--9--9--9--|-9--9--9--9--|-9----9----|-9----------------------|

C|-9--9--9--9--|-9--9--9--9--|-----------|------------------------|

G|-------------|-------------|-----------|------------------------|

D|-------------|-------------|-----------|------------------------|





(Tadeu Patolla - intro 2x)

(Marcão - intro 1x)



Tadeu Patolla:



F# C# B

F#|---------|-----|---------|

C|---------|-6-6-|-4-4-4-4-|

G|-4-4-4-4-|-4-4-|-2-2-2-2-|

D|-2-2-2-2-|-----|---------|







F# C# B

F#|---------|-----|---------|

C|---------|-6-6-|-4-4-4-4-|

G|-4-4-4-4-|-4-4-|-2-2-2-2-|

D|-2-2-2-2-|-----|---------|





Marcão:



F# C# B

F#|---------|-----|---------|

C|---------|-6-6-|-4-4-4-4-|

G|-4-4-4-4-|-4-4-|-2-2-2-2-|

D|-2-2-2-2-|-----|---------|







F# C#

A#|---------|-----|---------------|

F|---------|-----|-4-6-8-9-11-13-|

C|---------|-6-6-|-x-x-x-x--x--x-|

G|-4-4-4-4-|-4-4-|-2-4-6-7--9-11-|

D|-2-2-2-2-|-----|---------------|





Refrão 2x:



E B C#m A

D#|-x-x-x-x-|-x-x-x-x-|-x-x-x-x-|-x-x-x-x-|

A|-5-5-4-4-|-5-5-4-4-|-5-5-4-4-|-5-5-4-4-|

F|-4-4-4-4-|-4-4-4-4-|-4-4-4-4-|-4-4-4-4-|

C|-2-2-2-2-|-2-2-2-2-|-2-2-2-2-|-2-2-2-2-|

G|-2-2-2-2-|-2-2-2-2-|-2-2-2-2-|-2-2-2-2-|

D|---------|---------|---------|---------|





E B

Se não eu quem vai fazer você feliz?

C#m A

Se não eu quem vai fazer você feliz?





E B C#m A

D#|-------------|-------------|-----------|------------------------|

A|-12-12-12-12-|-12-12-12-12-|---12---12-|---12-(deixa o som soar)|

F|-9--9--9--9--|-9--9--9--9--|-9----9----|-9----------------------|

C|-9--9--9--9--|-9--9--9--9--|-----------|------------------------|

G|-------------|-------------|-----------|------------------------|

D|-------------|-------------|-----------|------------------------|





Final:

F|---------|

C|-9-8-6-4-|

G|-7-6-4-2-|

D|---------|

El acorde de Proibida Pra Mim (Grazon) de Charlie Brown Jr. es una versión de la canción original realizada por colaboradores/usuarios de Coveralia.

¿Has encontrado algún error en esta página? Envíanos tu corrección del acorde