música
Buscador

Acorde de Prisionero - Angeles Del Infierno

Letra de Prisionero

E  

Déjalo para otra ocasión

D E

Confiaba que me ibas a llamar



Igual así consigo olvidar

D E

Quizás a lo mejor, eeeeeeeh ya....



Riff A

E C D E D E E

E----------------------------------------------------------------------------------

B----------------------------------------------------------------------------------

G----------------------------------------------------------------------------------

D----9---------------5---------------7--------------9--7--9--9--9------------------

A----7---------------3---------------5--------------7--5--7--7--x------------------

E---------00000------------00000-------00000---------------------------------------



E C D

Era la primera vez que sentía

E D E E

Una extraña sensación

E C D

Mi mente tu imagen retenía

E D E E

Con verdadera obsesión

E C D

Todo era en ti tan excitante

E D E E

Que anulaba mi sed

E C D

Fueras para mí a todas las horas

E D E E

Algo por lo que vivir



Riff B Dos veces

F G A

E---------------------------------------------------------------------------------------------------------

B---------------------------------------------------------------------------------------------------------

http://www.coveralia.com/acordes/prisionero-angeles-del-infierno.php

G---------------------------------------------------------------------------------------------------------

D---------------------------------------------------------------------------------------------------------

A---3------3----3------------------5----5-5----5----------------------7-------7----7-----5-7------7----7--

E----1---1-1----1------------------3----3-3----3----------------------5----5-5----5-----3-5----5-5----5---



Eras mas fuerte que mi propia voluntad



E C D G

Prisionero, prisionero de tu amor

E C D E

Prisionero, prisionero de tu amor



ocultar esta pestaña Riff A

E C D E D E E

E--------------------------------------------------------------------------------------------------------

B--------------------------------------------------------------------------------------------------------

G--------------------------------------------------------------------------------------------------------

D----9---------------5---------------7--------------9--7--9--9--9----------------------------------------

A----7---------------3---------------5--------------7--5--7--7--x----------------------------------------

E---------00000------------00000-------00000-------------------------------------------------------------



E C D

En el momento en que no te veía

E D E E

Yo me sentía morir

E C D

Y juraba una y otra vez

E D E E

No acordarme de ti

E C D

Me mostraba algo indiferente

E D E E

No había nada que hacer

E C D

Tu tal vez sin llegar a saberlo

E D E E

Te apoderaste de mí

Letra subida por: Anónimo

Discos en los que aparece este acorde: Diabolicca , Lo Mejor De Angeles Del Infierno 1984-1993 , Exitos Diabolicos

El acorde de Prisionero de Angeles Del Infierno es una versión de la canción original realizada por colaboradores/usuarios de Coveralia.

¿Has encontrado algún error en esta página? Envíanos tu corrección del acorde