música
Buscador

Acorde de Primera Vez - Ricardo Arjona

Letra de Primera Vez

Intro



Guitarra 1



e|---0--------0----------------------|

B|-------3--------3---3---1---3---1--|

G|-----4--------2-------0-------0----| X 3

D|-5--------4-------2----------------|

A|--------------------------0--------|

E|-----------------------------------|



En la segunda vez, entra la segunda guitarra, que es

de 12 cuerdas y hace esto



e|-----------------------------------|

B|-8-12-10-7---7-8-8-8-8---7-8-8-8-8-|

G|-----------9-----------9-----------| X 2

D|-----------------------------------|

A|-----------------------------------|

E|-----------------------------------|



Guitarra 1

e|----------------------|

B|-----------3----------|

G|-----0-2/4---42*0----|

D|-0*2------------------|

A|----------------------|

E|----------------------|





Despacio comienzo en tu boca Despacio y sin quitarte

e|-------0-------0-------0-------0-------0-------0-----|

B|-----0-------0-------0-------0-------0-------0-------|

G|---0-------0-------0-------0-------0-------0---------|

D|-5-------4-------2-------0---------------------------|

A|---------------------------------3-------2-----------|

E|-----------------------------------------------------|



la ropa mi cama no merece tu cuerpo

e|-------0-------0-------0-------0-------2-----2-------|

B|-----0-------0-------0-------0-------3---3-----3-----|

G|---0-------0-------0-------0-------2-------2-----2---|

D|---------------------------------0-------------------|

A|-0---------------------------------------------------|

E|---------3-------1-------0---------------------------|





virgen como el amazonas mucho para un lobo cazador

e|-----------------------------------------------------|

B|-----------------------0*1*0--------------5-------4--|

G|-----------------------------0---0------2-------2----|

D|---------------------0---------0------4-------4------|

A|------------------------------------2-------2--------|

E|-------------------3---------------------------------|



pero ideal para el amor...

e|-------0---------------3-----3----------3-2----------|

B|---------0---0-------2---2-----2------3--------------|

G|-----------0---0---3-------3--------2----------------|

D|-----2-----------2----------------0------------------|

A|---2-------------------------------------------------|

E|-0---------------------------------------------------|



Despacio voy por tu corazón despacio y me detiene

e|-------0-------0-------0-------0-------0-------0-----|

B|-----0-------0-------0-------0-------0-------0-------|

G|---0-------0-------0-------0-------0-------0---------|

D|-5-------4-------2-------0---------------------------|

A|---------------------------------3-------2-----------|

E|-----------------------------------------------------|



un botón mientras dices basta me ayudas

e|-------0-------0-------0-------0-------2-----2-------|

B|-----0-------0-------0-------0-------3---3-----3-----|

G|---0-------0-------0-------0-------2-------2-----2---|

D|---------------------------------0-------------------|

A|-0---------------------------------------------------|

E|---------3-------1-------0---------------------------|





esa guerra en tu vientre entre el sigue y el detente

e|-----------------------------------------------------|

B|-----------------------0*1*0--------------5-------4--|

G|-----------------------------0---0------2-------2----|

D|---------------------0---------0------4-------4------|

A|------------------------------------2-------2--------|

E|-------------------3---------------------------------|



que hacen desicivo el presente

e|-------0---------------3-----3----------2-----3---2--|

B|---------0---0-------2---2-----2------3---3-----2---2|

G|-----------0---0---3-------3--------2-------2--------|

D|-----2-----------2----------------0------------------|

A|---2-------------------------------------------------|

E|-0---------------------------------------------------|





e|----------------------|

B|----------------------|

G|-----0-2/4---42------|

D|-0*2------------------|

A|----------------------|

E|----------------------|



G Bm

Tambien es mi primera vez

Em Bm

pondré el concierto de Aranjuez

A7 D

para relajarnos juntos



G Bm

Tambien es mi primera vez

http://www.coveralia.com/acordes/primera-vez-ricardo-arjona.php

Em Bm

siente como tiemblo ya vez

C Am D G

tuve sexo mil veces pero nunca hice el amor





******aqui va un puente con un sax, yo hice el arreglo

para guitara va sobre las mismas pisadas que el coro*******





e|------------------------------------------------------|

B|-8-8 10/12-10-7---7-8-8-8-8---7-8-8-8-8-8-7-8--8-10/12|

G|----------------9-----------9-------------------------|

D|------------------------------------------------------|

A|------------------------------------------------------|

E|------------------------------------------------------|



e|---10-------------------------------------------------|

B|-10------7-8-8-8-8---7-8-8-8-8-8-12-10-8--------------|

G|-------9-----------9----------------------------------|

D|------------------------------------------------------|

A|------------------------------------------------------|

E|------------------------------------------------------|



e|----------------------|

B|-----------3----------|

G|-----0-2/4---42------|

D|----------------------|

A|----------------------|

E|----------------------|





Despacio voy por tu cintura despacio y me detiene

e|-------0-------0-------0-------0-------0-------0-----|

B|-----0-------0-------0-------0-------0-------0-------|

G|---0-------0-------0-------0-------0-------0---------|

D|-5-------4-------2-------0---------------------------|

A|---------------------------------3-------2-----------|

E|-----------------------------------------------------|



una duda si es que realmete merezco

e|-------0-------0-------0-------0-------2-----2-------|

B|-----0-------0-------0-------0-------3---3-----3-----|

G|---0-------0-------0-------0-------2-------2-----2---|

D|---------------------------------0-------------------|

A|-0---------------------------------------------------|

E|---------3-------1-------0---------------------------|





robarme a la niña, y regalarte a la mujer

e|-----------------------------------------------------|

B|-----------------------0*1*0--------------5-------4--|

G|-----------------------------0---0------2-------2----|

D|---------------------0---------0------4-------4------|

A|------------------------------------2-------2--------|

E|-------------------3---------------------------------|



e inscribirme en tu ayer

e|-------0---------------3-----3----------2-----3---2--|

B|---------0---0-------2---2-----2------3---3-----2---2|

G|-----------0---0---3-------3--------2-------2--------|

D|-----2-----------2----------------0------------------|

A|---2-------------------------------------------------|

E|-0---------------------------------------------------|







G Bm

Tambien es mi primera vez

Em Bm

pondré el concierto de Aranjuez

A7 D

para relajarnos juntos



G Bm

Tambien es mi primera vez

Em Bm

siente como tiemblo ya vez

C Am D G

tuve sexo mil veces pero nunca hice el amor



G Bm

Tambien es mi primera vez

Em Bm

pondré el concierto de Aranjuez

A7 D

para relajarnos juntos



G Bm

Tambien es mi primera vez

Em Bm

siente como tiemblo ya vez

C Am D G

tuve sexo mil veces pero nunca hice el amor



******segundo areglo de sax*******





e|------------------------------------------------------|

B|-8-8 10/12-10-7---7-8-8-8-8---7-8-8-8-8-8-7-8--8-10/12|

G|----------------9-----------9-------------------------|

D|------------------------------------------------------|

A|------------------------------------------------------|

E|------------------------------------------------------|



e|---10-------------------------------------------------|

B|-10------7-8-8-8-8---7-8-8-8-8-8-7-8------------------|

G|-------9-----------9----------------------------------|

D|--------------------------------------FADE OUT--------|

A|------------------------------------------------------|

E|------------------------------------------------------|



El acorde de Primera Vez de Ricardo Arjona es una versión de la canción original realizada por colaboradores/usuarios de Coveralia.

¿Has encontrado algún error en esta página? Envíanos tu corrección del acorde