música
Buscador

Acorde de Porque Hablamos - Ricardo Arjona

Letra de Porque Hablamos

Intro= LA2, RE2, LA2, RE2, RE



LA2 RE2

1|--0--0------------------------0---------------------

2|--0--0------------------------3---------------------

3|--2--2---------------2--------2-2-----------2h4--2--

4|--2--2--2------------2--------0-0--0h2--4-----------

5|--0-----0--0--2--4------0---------------------------

6|----------------------------------------------------



LA2 RE2

1|--0--0------------------------0--0-0-0--------------

2|--0--0------------------------3--3/5/7--------------

3|--2--2---------------2--------2--2/4/7--------------

4|--2--2--2------------2--------0--0-0-0--------------

5|--0-----0--0--2--4------0---------------------------

6|----------------------------------------------------





LA2

Tú me dices



MI

yo te digo



FA#m MI RE

y así empieza nuestra guerra cotidiana



LA2-MI FA#m

yo me armo de adjetivos



RE MI LA

tú conjugas el peor de mis pasados.







DO

Y te apunto



SOL

donde duele



LAm SOL FA

y te acuerdo el peor de tus pecados



DO SOL6d LAm

tú reviras la ofensiva



FA SOL DO RE

y disparas donde sabes que haces daño.







LA MI

Y en el campo de batalla



RE MI LA

quedan muertos los minutos que perdemos



MI

tú me dices,



FA#m

yo te digo,



RE DO# FA#m

y así acaba nuestra guerra cotidiana



RE MI LA MI

esta guerra sin cuartel que nadie gana.





LA

Porque hablamos



RE MI FA#m

y no usamos ese tiempo en darnos besos



SIm7 MI

en pintarnos con las manos



DO#m FA#m

las caricias que queremos



SIm7

y que no nos damos



MI LA

porque siempre hablamos



RE MI

de lo tuyo y de lo mío



DO#m FA#m

del pasado y los culpables



RE MI

mientras muere otro minuto



http://www.coveralia.com/acordes/porque-hablamos-ricardo-arjona.php

LA

porque hablamos.







LA

Ya te dije



MI

que no es cierto



FA# MI RE

ya dijiste que tú no eres lo que digo



LA MI

nadie cree



FA#m

nadie acepta



RE MI LA

cada quien defiende su utopía



DO SOL

y el fantasma de la duda



LAm SOL FA

se abre paso en la frontera del futuro



DO SOL6d LAm

y el presente moribundo



FA SOL DO

se consuela con lo poco que nos queda.





SOL

Y te quiero



LAm

y me quieres



FA SOL DO

pero somos más idiotas que sensatos



SOL LAm

y aparece otro día



FA MI LAm

y nos van quedando llagas incurables



FA SOL DO SOL

de esta maldita enfermedad de hablar de más.





DO

Porque hablamos



FA SOL LAm

y no usamos ese tiempo en darnos besos



REm SOL7

en pintarnos con las manos



MI LAm

las caricias que queremos



REm

y que no nos damos



SOL7 MI LAm

porque siempre hablamos



REm SOL7

de lo tuyo y de lo mío



MI LAm

del pasado y los culpables



REm SOL7

mientras muere otro minuto



DO

porque hablamos.



RE SOL MI LAm

1---------------------------------------------------

2---8/10---10---10---8-------------------6/8--------

3------------------------10---9---7--5---------5----

4---------------------------------------------------

5---------------------------------------------------

6---------------------------------------------------



REm SOL7

...mientras muere otro minuto



DO

porque hablamos.

Letra subida por: Anónimo

Discos en los que aparece este acorde: Galeria Caribe

El acorde de Porque Hablamos de Ricardo Arjona es una versión de la canción original realizada por colaboradores/usuarios de Coveralia.

¿Has encontrado algún error en esta página? Envíanos tu corrección del acorde