música
Buscador

Acorde de Poli Love - Zoe

Letra de Poli Love

e---0---0-------------------0-----------------------|

B---1---1-------------------1-------------------------|

G---2---2---------0--------2-----------------------|

D---2---2--0h2-----0h2-2-------------------------------|

A---0---0-------------------0-------------------------|

E------------------------------------------------|



Am G D Am

Recuerdo a Poli, Era mi chica ideal, Una dulce perla blanca mexicana

G D Am

La cual yo amaba Pero nunca pude tener, Ni mostrarle todo lo que le

C Em C

Escribí en el fondo del mar, Satélites

B7

Flotando por el Universo en busca de señal





Am G D

Señales de vida, En su constelación

Am G D

Electro radiograma de amor

Am G D

Destellos de mil años luz

C Em

Esta es la historia de una vieja canción

C Am

La de la primera vez



Intro: Am Am* Am, Am Am* Am,



Am G D Am

Recuerdo a Poli, Era mi chica ideal, Una dulce perla blanca mexicana

G D Am

La cual yo amaba Pero nunca pude tener, Ni mostrarle todo lo que le

C Em

Escribí en la espalda del sol, Satélites

B7

Flotando por el Universo en busca de señal

http://www.coveralia.com/acordes/poli-love-zoe.php



e-------2-------------------2---------------------|

B-----0--0--0--------0--------------------------|

G---2------2-------2---2------------------------|

D--1-------------1-------------------------------|

A-2-----------------------------------------------|

E--------------------------------------------------|



Am G D

Señales de vida, En su constelación

Am G D

Mensajes o evidencia de amor

Am G D

Destellos de mil años luz

C Em

Esta es la historia de una vieja canción

C Am

La de la primera vez



Despues Sigue:



Am,G,D(Termina cuando Empiesa a decir:Love!)



Am,G,D(solo Sol y re son con cegilla)





Love, love, love

Love, love, love

Love, love, love

Love, love, love

Love, love, love

Love, love, love

Love, love, love

Love, love, love

Love, love

Love, love

Love, love, love

Letra subida por: Anónimo

El acorde de Poli Love de Zoe es una versión de la canción original realizada por colaboradores/usuarios de Coveralia.

¿Has encontrado algún error en esta página? Envíanos tu corrección del acorde

Solicitamos su permiso para obtener datos estadísticos de su navegación en esta web, en cumplimiento del Real Decreto-ley 13/2012. Si continúa navegando consideramos que acepta el uso de cookies. OK | Más información