música
Buscador

Acorde de Pleasure And Pain - Bullet For My Valentine

Letra de Pleasure And Pain





Tuning: Standard



************************************



| ~ vibrato

| B Bend

|* palm muting chords (it is optional)



************************************







Am *

Pain! Don't walk away

F * G *

I'm not done with you, you're not done with me

Am *

Stop! We can't survive

F * G *

Will you die for me? 'Cause I'll die for you.

Am *

I, I'm not insane

F G

Cut out my heart, with this razor blade

Am *

Take, this sacrifice

F * G *

You can't feed on me, can I feed on you.



|-----------------|

|-----------------|

|-----------------|

|-----------------| [strum a few times, continue w/ the same rhythm]

|-------0---------|

|-----------------|

COME TAKE THIS SACRIFICE!

COME TAKE THIS SACRIFICE!











Am G

You don't bring me pleasure

Am F

You just bring me pain

G

Over and over again







Am G

You don't bring me pleasure

Am F

You just bring me pain

G Am

And nothing in between







Am *

Hey, there's no escape

F * G *

You can't run from me, I can't run from you.

Am *

Bow, 'cause I'm your God

F * G*

Will you pray for me, 'cause I'll pray for you

Am*

Push, your sins aside

F G

Nobody cares your head's fucked inside

Am

Embrace your apathy

F G Am

I don't care for you, you don't care for me.







|-----------------|

|-----------------|

|-----------------|

|-----------------| [strum a few times]

|-------0---------|

|-----------------|

http://www.coveralia.com/acordes/pleasure-and-pain-bullet-for-my-valentine.php



EMBRACE YOUR APATHY!

EMBRACE YOUR APATHY!



Am G

You don't bring me pleasure

Am F

You just bring me pain

G

Over and over again







Am G

You don't bring me pleasure

Am F

You just bring me pain

G Am

And nothing in between

G [start solo]

No nothing in between.







SOLO



Part 1 - Play It Twice (see NOTE on the top of the page)

|------------------------------------------------------------------------------------------|

|------------------------------------------------------------------------------------------|

|------------------------------------------------------------------------------------------|

|--7~---9-10-7~---9-10-7-9-10-7-9-10-5-----9-10-7~---9-10-7~---9-10-7-9-10-7-9-10-14-15-9--|

|------------------------------------------------------------------------------------------|

|------------------------------------------------------------------------------------------|



(part 2)

|--------------------16--13b------|

|----11--13--14-------------------|

|---------------------------------|

|---------------------------------|

|---------------------------------|

|---------------------------------|







Abm Am

You don't want, to hear the truth



...



G

You don't bring me pleasure

Am F

You just bring me pain

G

Over and over again







Am G

You don't bring me pleasure

Am F

You just bring me pain

G Am

And nothing in between

G Am

No nothing in between.

G Am

NO NOTHING IN BETWEEN!

G

YEAH!



Am G



Am F G



Am G



Am F G Am



G Am



G Am

No nothing in between!







Letra subida por: Anónimo

Discos en los que aparece este acorde: Fever

El acorde de Pleasure And Pain de Bullet For My Valentine es una versión de la canción original realizada por colaboradores/usuarios de Coveralia.

¿Has encontrado algún error en esta página? Envíanos tu corrección del acorde