música
Buscador

Acorde de Pink Triangle - Weezer

Letra de Pink Triangle

 

e|---3-----5----7------5--3-------3------------------------------|

B|-----3-----5----7-----------7-----3---3------------------------|

G|------------------7-------4---4-----4----------4x--------------|

D|---------------------------------------------------------------|

A|---------------------------------------------------------------|

E|---------------------------------------------------------------|





Em Am

When I'm stable long enough

D G D/F#

I start to look around for love

Em Am

See a sweet in floral print

D G D/F#

My mind begins the arrangements

Em Am

But When I start to feel that pull

D G D/F#

Turns out i just pulled myself

Em Am

She would never go with me

D G

Were I the last girl on Earth



Bm C G

I'm dumb, she's a lesbian

C G D

I thought I had found the one

Em Bm C G

We were good as married in my mind

C G D

But married in my mind's no good

G D/F# Em Bm Em

A Pink Triangle on her sleeve

C G C D G

Let me know the truth, let me know the truth





e|---3-----5----7------5--3-------3------------------------------|

B|-----3-----5----7-----------7-----3---3------------------------|

G|------------------7-------4---4-----4----------2x--------------|

D|---------------------------------------------------------------|

A|---------------------------------------------------------------|

E|---------------------------------------------------------------|





http://www.coveralia.com/acordes/pink-triangle-weezer.php

Em Am

Might have smoked a few in my time

D G D/F#

But never thought it was a crime

Em Am

Knew the day would surely come

D G D/F#

When i'd chill and settle down

Em Am

When I think I found a good old-fashioned girl

D G D/F#

Then she put me in my place

Em Am

If everyone's a little queer

D G

Can't she be a little straight?



Bm C G

I'm dumb, she's a lesbian

C G D

I thought I had found the one

Em Bm C G

We were good as married in my mind

C G D

But married in my mind's no good

G D/F# Em Bm Em

Pink Triangle on her sleeve

C G C D G

Let me know the truth, let me know the truth



I'm dumb, she's a lesbian

I thought I had found the one

We were good as married in my mind

But married in my mind's no good

Pink Triangle on her sleeve

Let me know the truth, let me know the truth



I'm dumb, she's a lesbian

I thought I had found the one

We were good as married in my mind

But married in my mind's no good

A Pink Triangle on her sleeve

C G C D G

Let me know the truth, let me know the truth

C D G C D G

Let me know the truth, let me know the truth

Letra subida por: Anónimo

El acorde de Pink Triangle de Weezer es una versión de la canción original realizada por colaboradores/usuarios de Coveralia.

¿Has encontrado algún error en esta página? Envíanos tu corrección del acorde