música
Buscador

Acorde de Piccola Pietra - Eros Ramazzotti

Letra de Piccola Pietra

 Intro: 



Dm C Bb F

e|--5-----5--|--3--------|-----------|------1----|

B|------6----|------6----|--3---1-3--|--1--------|

G|----7------|----5------|-----------|----2------|

D|-----------|-----------|----3------|-----------|

A|--5--------|--3--------|--1--------|-----------|

E|-----------|-----------|-----------|--1--------|



Bb F C C

e|-----------|-----------|------8----|-----------|

B|--3--------|-----------|--8--------|-----------|

G|----0-2-3--|------2----|----9------|-10-----9--|

D|-----------|--------3--|-----------|-----10----|

A|--1--------|----3------|-----------|-----------|

E|-----------|--1--------|--8--------|--8--------|









Verse:



F C

Arrivò al tempo di guerra

Dm Bb

Dalle onde toccando la terra

F C

Lui sbarcò e tutti videro

Bb C

La sua umanità



F C

Lei guardò quegli occhi sognanti

Dm Bb

Così vivi così penetranti

F Bb C

E di colpo lo amò



F C

Si sentì spuntare le ali

Dm Bb

Quando infine le strinse le mani

F C Bb C

Lei senti nello stomaco, uno sfarfallio



Pre-chorus 1:



Bb C

Quella notte bagnò la felicità

F Bb

Di caldissime lacrime

Gm F

Che lasciò cadere in mare

C

Ed aggiunse sale al sale,











G D

Lei, gli diceva lei

Em C

Tu sei tu sei l'amore mio

Am Em D

http://www.coveralia.com/acordes/piccola-pietra-eros-ramazzotti.php

Tutta la mia vita è per te



G D

Ma lui, rispondeva lui

Em C

Ho in tasca una piccola pietra io

Am Em D

Per costruire pace dove non c'è, così



Em C Em D G

Io la porterò dove mi porterà

C Am

Questa speranza dentro

C D

Che non mi abbandona mai



Em C G D

Io la porterò Con tutto il peso che ha

Am

Piccola pietra

C D7 G

Che forse un giorno si posera







Solo:



G D Em C

e|--------------------------------------|

B|--------------------------------------|

G|---------------------4/5-7-5-4--------|

D|------5-7-7/9-5-7--------------7-5-5--|

A|--5-7---------------------------------|

E|--------------------------------------|







Se ne andò perchè la sua sorte

di ogni vento è sempre più forte

Se ne andò col suo carico

Rinunciando a lei



Quella notte si alzò fino al cielo

Tutto il fiato che lei cavò

Dal profondo dell'addome

Per gridare il suo nome



Lei gli diceva lei

Tu sei tu sei l'amore mio

Tutta la mia vita è per te



Ma lui, rispondeva lui

Ho in tasca una piccola pietra io

Per costruire pace dove non c'è, così



Io, la porterò dove mi porterà

Questa speranza dentro

Che non mi abbandona mai



Io la porterò con tutto il peso che ha

Piccola pietra

Che forse un giorno si poserà



Piccola pietra

Si poserà

Letra subida por: Anónimo

El acorde de Piccola Pietra de Eros Ramazzotti es una versión de la canción original realizada por colaboradores/usuarios de Coveralia.

¿Has encontrado algún error en esta página? Envíanos tu corrección del acorde