música
Buscador

Acorde de Piazzolla - Los Fabulosos Cadillacs

Letra de Piazzolla





Acordes:

Am Ebº Dm E7 Gm C#º Bb

xx x x x x x x xx x x x xx

5 O||O|| 5 |||O|| 5 |O|||| 5 ||||O| 3 O||O|| 3 |||O|| |O||||

|||||| |O|||| ||||O| ||O||| |||||| |O|||| ||||||

|OO||| ||O|O| ||OO|| |O|O|| |OO||| ||O|O| ||OO||

|||||| |||||| |||||| |||||| |||||| |||||| ||||||





G5 C5 D5 Cm D7 Bbmaj7 Emaj7

xxx x xx x xx x x x x x x x x

3 O||||| 3 |O|||| 5 |O|||| 3 |O|||| 3 ||||O| |O|||| |||OO|

|||||| |||||| |||||| ||||O| ||O||| |||O|| ||||||

|OO||| ||OO|| ||OO|| ||OO|| |O|O|| ||O|O| ||O|||

|||||| |||||| |||||| |||||| |||||| |||||| |O||||



Nomenclatura:

/ Deslizar, arrastrar

// Gliss

^ Hammer on, Pull off, ligado



INTRO:



Am Ebº Dm E7 Am Ebº Dm E7

E|-----------------------------------------|

B|-----------------------------------------|

G|-----------------------------------------|

D|---9-7---7-10-9--------------9-7---7-----|

A|-7-7-6-9-5-8--7-7-8-10-8---7-7-6-9-5-5-7-|

E|-5-----7-------------------5-----7-------|



Am Ebº

E|------------------|--------------------------|

B|------------------|--------------------------|

G|------------------|--------------------------|

D|------------------|-2------------------------|

A|--Riff-TROMPETAS--|-0---3-3/7-6-8/7-7/6--6/0-|

E|------------------|--------------------------|



Am Ebº Am Ebº

E|---------------------------------------||

B|-5---------3/5-4-----5---------3/5-4---||

G|---2-2/4/5-------------2-2/4/5---------||

D|---------------------------------------||

A|-------------- TROMPETAS --------------||

E|---------------------------------------||



Am Ebº

Piantao, Calavera, Luna, Loco



Am Ebº Gm C#º Bb5

E|-------------------|-----------------------------||

B|-5---------3/5-4---|-----------------------------||

G|---2-2/4/5---------|-----------------------------||

D|-------------------|---7-5///3333-3333-3333-3333-||

A|-----TROMPETAS-----|-5-5-4///1111-1111-1111-1111-||

E|-------------------|-3---------------------------||



G5 C5 G5 D5 G5

¡Tango!, llévate mi corazón vida calavera

C5 G5

Esquinas, sangran mis pies...

D5 G5 C5 G5

violentango en Paris, ¿Quién otro sino vos

D5 G5 C5 G5

desnudó la ciudad y los versos del café?

D5 G5

Corrientes de Buenos Aires

F5 C5 F5

quemando frases de aires de bandoneón

G5 F5 C5

Buenos Aires quemando frases de aires de bandoneón

F5 G5 F5 C5 F5 G5 F5 C5

Na, na, na, na, na... na, na, na, na...





http://www.coveralia.com/acordes/piazzolla-los-fabulosos-cadillacs.php

E|-------------||

B|-------------||

G|-------------||

D|-7-5-4-------||

A|-5-3-2-3-2-0-|| x3

E|-------------||



C#º Ebº

Astor...



E|-------------------------|10-9-8-7--4-5-6-7--10-9-8-7---------

B|-5432-4321-444-4333-3222-|---------------------------10-9-8-7-

G|-------------------------|------------------------------------

D|-------------------------|------------------------------------

A|-(TROMPETAS)-------------|------------------------------------

E|-------------------------|------------------------------------



E|-10-9-8-7--4-5-6-7---------------------------------------------

B|-------------------5-4-3---acá hace algo que no entiendo bien--

G|---------------------------y después hace el riff de trompetas-

D|---------------------------de la intro.------------------------

A|---------------------------------------------------------------

E|---------------------------------------------------------------



[Am - Ebº] x4



Am Ebº

Piantao, Calavera, Luna, Loco



Am Ebº Gm C#º Cm D7 Ebº

E|-------------------|--------------------------------------------|

B|-5---------3/5-4---|--------------------------------------------|

G|---2-2/4/5---------|--------------------------------------------|

D|-------------------|---7-5---5--8-7--------------------76767676-|

A|-----TROMPETAS-----|-5-5-4-7-3--6-5--5-6-5-6--5-6-5-6--56565656-|

E|-------------------|-3-----5------------------------------------|



¡Sólo! Solo vino del mar, y solo se fue con él.

Piantao el fulano aquel,

va por calles canallas Qué espíritus revelan,

siguiendo la luna como un diablo porteño que,

Siento que voy a estrellarme con tu bandoneón a toda velocidad _

voy a estrellarme con tu bandoneón a toda velocidad

voy a estrellarme contra tu bandoneón a toda velocidad





E|-------------||

B|-------------||

G|-------------||

D|-7-5-4-------||

A|-5-3-2-3-2-0-|| x4

E|-------------||



Am Ebº Am Ebº Am Ebº

Astor ... Astor ... Astor...



punteo final (de la guitarra sin distorción)

Bbmaj7

E|-5---3---1-0--5--------------------------7^8^7----7-----

B|---3---1--------3-------------------5-8--------10---10--

G|------------------5-4-----------5-7---------------------

D|--------------------------5^6^7-------------------------

A|-----------------------*--------------------------------

E|--------------------------------------------------------

Emaj7

E|-10^8^7----7--------------------------------------------

E|--------10---10-8----------4----------------------------

E|------------------10-9-8---4----------------------------

E|---------------------------6----------------------------

E|---------------------------7----------------------------

E|--------------------------------------------------------



Notas:

- En el punteo final (*) no escucho bien la guitarra pero hace algo





Letra subida por: Anónimo

Discos en los que aparece este acorde: Fabulosos Calavera , Serie 2000

El acorde de Piazzolla de Los Fabulosos Cadillacs es una versión de la canción original realizada por colaboradores/usuarios de Coveralia.

¿Has encontrado algún error en esta página? Envíanos tu corrección del acorde