música
Buscador

Acorde de People Get Ready - Eva Cassidy

Letra de People Get Ready

 

Intro:

D Dsus4 D Bm G Asus4 E7sus4

e|--2-3-2------------------------|

B|--3-3-3--3-----0/0--3-3-0-5-7--|

G|--2-2-2--4--4--2/4--2-2-2-4-7--|

D|---------4--5------------------|

A|------------5---------------0--|

E|-------------------------------|



D Dsus4 D Bm G Asus4 E7sus4

e|--2-3-2------------------------------|

B|--3-3-3--3-----0/0---3-3--5-3--------|

G|--2-2-2--4--4--2/4---2-2--4-2----2---|

D|---------4--5------------------0---2-|

A|------------5---------------0--------|

E|-------------------------------------|



e|-0------5--7-----------------------|

B|-3---3-----0--7/6-3--3-3-0-5-7-----|

G|-2-2----0--0--0---0--2-2-2-4-7-----|

D|-0------0-----0---0----------------|

A|-----------------------------0-----|

E|-----------------------------------|



D Dsus4 D Bm G Asus4 E7sus4

e|--2-3-2------------------------|

B|--3-3-3--3-----0/0---3-3--5-3--|

G|--2-2-2--4--4--2/4---2-2--4-2--|

D|---------4--5------------------|

A|------------5---------------0--|

E|-------------------------------|









D Bm G Asus4 ( Asus4)

People get ready there's a train a-comin'

D Bm G Asus4 ( Asus4)

You don't need no baggage you just get on board

D (D5) Bm G Asus4 ( Asus4)

All you need is faith to hear diesels a-humming

http://www.coveralia.com/acordes/people-get-ready-eva-cassidy.php

D Bm G Asus4 Asus4

You don't need no ticket you just thank The LORD,

D Bm G Asus4 ( Asus4)

Yeah yeah yeah



D Bm G Asus4 ( Asus4)

People get ready for the train to Jordan

D Bm G Asus4 E7sus4/ Asus4

Picking up passengers from coast to coast

D (D5) Bm G Asus4 ( Asus4)

Faith is the key open the doors and board them

D Bm G Asus4 E7sus4 Asus4

There's room for all of the loved and lost

Yeah yeah...



D (D5) Bm G Asus4 (E7sus4/ Asus4)

Now there ain't no room for the hopeless sinner

D Bm G Asus4 Asus4

Who's hard on mankind just to save his own

D (D5) Bm G Asus4 ( Asus4)

Have pity on those whose chances are thinner

D Bm G Asus4 ( Asus4)

'Cause there's no hiding place from the Kingdom's Throne, ohhh...



D Bm G Asus4 ( Asus4)

People get ready there's a train a-comin'

D Bm G Asus4

You don't need no baggage you just get on board

D Bm G Asus4 ( Asus4)

All you need is faith to hear diesels a-humming

D Bm G Asus4 ( Asus4)

Don't need no ticket you just thank The LORD

Yeah yeah yeah

D Bm G Asus4 ( Asus4)

I'm getting ready

D Bm G Asus4 ( Asus4)

I...'m ready

D Bm G Asus4 ( Asus4)

Oh I'm getting ready

D Bm G Asus4 ( Asus4)

I...'m ready -ehh

Letra subida por: Anónimo

Discos en los que aparece este acorde: Songbird , Live At Blues Alley , Simply Eva , The Best Of Eva Cassidy , Nightbird

El acorde de People Get Ready de Eva Cassidy es una versión de la canción original realizada por colaboradores/usuarios de Coveralia.

¿Has encontrado algún error en esta página? Envíanos tu corrección del acorde