música
Buscador

Acorde de Peligroso Blues - Coti

Letra de Peligroso Blues

CAPO EN 1ER TRASTE.





Intro: C G

e-----------------------------------------------

B--------1-----------1-----------0---0h1-0------

G------0---0-------0---0-------0---0------------

D----2-------2---2-------2---0------------------

A--3-----------3--------------------------------

E--------------------------3--------------------









e-------------------------------------------1--

B-------1-----------1-----------1---------1----

G-----0---0-------3-----------2---2-----1------

D---2-------2---2-----------3-------3----------

A-3-----------3-----------3--------------------

E-------------------------------------1--------



e-------------------------------------------------------

B--------1-----------1-------------0------------0h1-0---

G------0---0-------0---0---------0----------------------

D----2-------2---2-------2-----0------------------------

A--3-----------3----------------------------------------

E---------------------------3---------------------------

C F/C Fm

Peligroso, hoy estoy peligroso

C

Como un niño abandonado

G

Como un viejo maltratado







e--------------------------------------------1-

B-------1-----------1-----------1----------1---

G-----0---0-------3---3-------2---2------1-----

D---2-------2---2-------2---3-------3----------

A-3-----------3-----------3--------------------

E-------------------------------------1--------



e------------------------------------------------------

B--------1------------0H1-0----------1------------(0)--

G------0---0--------0--------------0---0--------(0)----

D----2-------2----0--------------2-------2----(0)------

A--3---------------------------3-----------------------

E--------------3----------------------------(3)--------

C C7 F/C Fm

Peligroso, hoy estoy peligroso

C G C G

Será mejor que me marche después de todo





e-------------------------------------------1--

B-------1-----------1-----------1---------1----

G-----0---0-------3-----------2---2-----1------

D---2-------2---2-----------3-------3----------

A-3-----------3-----------3--------------------

E-------------------------------------1--------



e-------------------------------------------------------

B--------1-----------1-------------0------------0h1-0---

G------0---0-------0---0---------0----------------------

D----2-------2---2-------2-----0------------------------

A--3-----------3----------------------------------------

E---------------------------3---------------------------

C F/C Fm

Peligroso, hoy estoy peligroso

C

Un juguete destrozado

G

Un cuartel abandonado





e--------------------------------------------1-

B-------1-----------1-----------1----------1---

G-----0---0-------3---3-------2---2------1-----

D---2-------2---2-------2---3-------3----------

A-3-----------3-----------3--------------------

E-------------------------------------1--------



e-------------------------------------------------------

B--------1------------0-----------1-----------1---------

G------0---0--------0-----------0---0-------3---3-------

D----2-------2----0-----------2-------2---2-------2-----

A--3------------------------3-----------3---------------

E--------------3----------------------------------------

C C7 F/C Fm

Peligroso, hoy estoy peligroso

C G C C7

Será mejor que me marche después de todo







F G

Por favor hoy no te acerques

Am F

porque puedo hacerte daño

Em

aunque no te toque

G (B--0h1-0)

aunque no lo quiera





http://www.coveralia.com/acordes/peligroso-blues-coti.php



e----------------------------------------------1-

B-------1H3-1---------1-----------1----------1---

G-----0-------0-----3---3-------2---2------1-----

D---2-------------2-------2---3-------3----------

A-3-------------3-----------3--------------------

E---------------------------------------1--------



e---------------------------------------------------

B--------1------------0-----------1------------(0)--

G------0---0--------0---0-------0---0--------(0)----

D----2-------2----0-----------2-------2----(0)------

A--3------------------------3-----------------------

E--------------3-------------------------(3)--------

C C7 F/C Fm

Peligroso, hoy estoy peligroso

C G C G

Será mejor que me marche después de todo





e-------------------------------------------1-

B-------1-----------1-----------1---------1---

G-----0---0-------3-----------2---2-----1-----

D---2-------2---2-----------3-------3---------

A-3-----------3-----------3-------------------

E-------------------------------------1-------



e--------------------------------------------------------

B---------1-----------1-------------0------------0h1-0---

G-------0---0-------0---0---------0----------------------

D-----2-------2---2-------2-----0------------------------

A---3-----------3----------------------------------------

E----------------------------3---------------------------

C F/C Fm

Peligroso, hoy estoy peligroso

C

Como un niño abandonado

G

Como un viejo maltratado



e--------------------------------------------1-

B-------1-----------1-----------1----------1---

G-----0---0-------3---3-------2---2------1-----

D---2-------2---2-------2---3-------3----------

A-3-----------3-----------3--------------------

E-------------------------------------1--------



e-------------------------------------------------------

B--------1------------0H1-0-------1-----------1---------

G------0---0--------0-----------0---0-------3---3-------

D----2-------2----0-----------2-------2---2-------2-----

A--3------------------------3-----------3---------------

E--------------3----------------------------------------

C C7 F/C Fm

Peligroso, hoy estoy peligroso

C G C C7

Será mejor que me marche después de todo







F G (B--0h1-0)

Por favor hoy no te acerques

Am F

porque puedo hacerte daño

Em

aunque no te toque

G (B--0h1-0)

aunque no lo quiera







e----------------------------------------------1-

B-------1H3-1---------1-----------1----------1---

G-----0-------0-----3---3-------2---2------1-----

D---2-------------2-------2---3-------3----------

A-3-------------3-----------3--------------------

E---------------------------------------1--------



e---------------------------------------------------

B--------1------------0-----------1------------(1)--

G------0---0--------0---0-------0---0--------(0)----

D----2-------2----0-----------2-------2----(2)------

A--3------------------------3------------(3)--------

E--------------3------------------------------------

C C7 F/C Fm

Peligroso, hoy estoy peligroso

C G C

Será mejor que me encierren en el calabozo.





FIN.





-------------------------------------------------------------------------

NOTAS: El estribillo se arpegia de esta manera, sólo se usa la 1ra cuerda

en Em.

Como ejemplos:

F Em

e---------------------------------0-----------0------------

B-------1------------1----------0---0-------0---0----------

G-----2---2--------2---2------0-------0---0-------0--------

D---3-------3----3-------3---------------------------------

A----------------------------------------------------------

E-1------------1------------0-----------0------------------



Letra subida por: Anónimo

Discos en los que aparece este acorde: Malditas Canciones: 10 Años (Edicion Especial)

El acorde de Peligroso Blues de Coti es una versión de la canción original realizada por colaboradores/usuarios de Coveralia.

¿Has encontrado algún error en esta página? Envíanos tu corrección del acorde