música
Buscador

Acorde de Paloma Cruel - Pate De Fua

Acordes:

Cuerdas:

6 5 4 3 2 1



Bm:(2)2 4 4 3 2 SI menor

F#: 2 4 4 3 2 2 Fa Sostenido

G: 3 5 5 4 3 3 Sol

D: x(0)0 2 3 2 Re

Em:(0)2 2 0 0 0 MI menor

C#7:(4)4 6 4 6 4 Do Sostenido 7



nota:los números en parentesis los puedes

tocar para el bajeo (empezando con

el bajo que no esta entre parentesis)



Intro:



Riff 1:



Bm F# Bm F# Bm

e|------2-------------2-------------2-------------2----------|

http://www.coveralia.com/acordes/paloma-cruel-pate-de-fua.php

B|-0--3----3-2-0----2----3-2------3----3-2-0----2----3-2-----|

G|---------------3-----------3-4-------------3-----------3-4-|





Luego:



Bm F# G D

e|-10--7----10-9----9--6---|-10--7----10-9-----10-5---|

B|-------7-------12------7-|-------8-------12-------7-|

G|-------------------------|--------------------------|



Em Bm

|-7-------7-----7------|

|----8-5----8-5----7---|

|--------------------7-|







F# Bm

Letra subida por: Anónimo

Discos en los que aparece este acorde: El Tren De La Alegria

El acorde de Paloma Cruel de Pate De Fua es una versión de la canción original realizada por colaboradores/usuarios de Coveralia.

¿Has encontrado algún error en esta página? Envíanos tu corrección del acorde