música
Buscador

Acorde de Paloma - Arak Pacha

    Dm

E||-------5--3--1-----------------------------|

B||--5-0---5--5--5---0------------0-0-0-0-0-0-|

G||-----------------------1-------------------|

D||---0-0----------0--------------------------|

A||--------------------------------0-0-0-0-0-0|

E||---------------------0----0----------------|



Dm

E||-------5--3--1----------------------------------------10---------10--|

B||--5-0---5--5--5---0------------0-0-0-0-0-0---------13-----------13---|

G||-----------------------1-----------------------10----------10--------|

D||---0-0----------0----------------------------------------------------|

A||--------------------------------0-0-0-0-0-0--------------------------|

E||---------------------0----0-------------------7-----------7----------|



REm LA#

Tienes que volar paloma

LAm REm

en tu propio cielo

LA#

hay un palomo esperando

LAm REm

pa' que vuelen juntos



FA

Mi camino no es el tuyo

SOL FA

yo soy de otro cielo

REm LA#

tienes que volar paloma

LAm REm

en tu propio cielo



REm LA#

Extiende tus blancas alas

LAm REm

y vuela hasta encontrar

http://www.coveralia.com/acordes/paloma-arak-pacha.php

LA#

remedio pa' tus heridas

LAm REm

y olvides tus penas

REm FA

Las alas de aquel palomo

SOL FA

quieren ayudarte

REm LA#

si unes a él tus alas

LAm REm

volarás muy lejos



REm DO LA# REm

Ay ay ay ay..

REm DO LA#

Ay ay ay ay..

LAm FA

Y si algún día el invierno

MIm LAm

llega hasta tu nido

LAm FA

no dejes que el frío hiele

MIm LAm

tu corazón tierno

LAm DO

entonces vuela paloma,

RE MIm

vuela hasta mi cielo

LAm FA

hallaremos nuestro nido

MIm LAm

volaremos juntos

LAm FA

hallaremos nuestro nido

MIm LAm

volaremos juntos

Letra subida por: Anónimo

El acorde de Paloma de Arak Pacha es una versión de la canción original realizada por colaboradores/usuarios de Coveralia.

¿Has encontrado algún error en esta página? Envíanos tu corrección del acorde