música
Buscador

Acorde de Painful - Catatonia

Letra de Painful



G

Fly, you greatest fool,

F#m

Why can't you say what they want you to?

Dm

Why can't you do what they taught you

Cm D

And show what they wanted of you?

G

Fly, you greatest fool,

F#m

Is this what everyone talked about?

Dm

You spill your high-flung phrases

Cm D

And hush when the risk gets too much

E-2-----------

B-3-----3-----

G-2-0-2---2---

D-0---------0-

A-------------

E-------------

G Am

And I, I wish you would do it,



E----------------

B-4-----4--------

G---5-----5------

D-----5-----5-5-5

A----------------

E----------------



D Cm

Then I'd never have to notice if the bridges are burnt.

G F#m

Is this what everyone talked about?

Dm Cm

Swallow everything that suits, dress it up as truth,

D

http://www.coveralia.com/acordes/painful-catatonia.php

Swallow it all down

E-2-----------

B-3-----3-----

G-2-0-2---2---

D-0---------0-

A-------------

E-------------

G Am

And I, I wish you would do it,



E----------------

B-4-----4--------

G---5-----5------

D-----5-----5-5-5

A----------------

E----------------

D Cm

Then I'd never have to notice if the bridges are burnt.

E-2-----------

B-3-----3-----

G-2-0-2---2---

D-0---------0-

A-------------

E-------------

G Am

And I, I wish you would do it,

E----------------

B-4-----4--------

G---5-----5------

D-----5-----5-5-5

A----------------

E----------------

D Cm

Then I'd never have to notice if the bridges are burnt.

G

So cold out here . . .





Letra subida por: Anónimo

Discos en los que aparece este acorde: Way Beyond Blue

El acorde de Painful de Catatonia es una versión de la canción original realizada por colaboradores/usuarios de Coveralia.

¿Has encontrado algún error en esta página? Envíanos tu corrección del acorde