música
Buscador

Acorde de Otra Vuelta De Cerveza - Doble Fuerza

Letra de Otra Vuelta De Cerveza

INTRO ACORDES: D  A  D  G  D  A  D



INTRO PUNTEO:



e|-5-3-2-3-5---------3-5-7-5---3-2-3-3-3333-2-3-5---------------|

B|------------3-3-3---------------------------------------------|

G|--------------------------------------------------------------| --

D|--------------------------------------------------------------| |

A|--------------------------------------------------------------| |

E|--------------------------------------------------------------| |

|_|X2

| |X2

e|-555-3-2-3-5---------3-5-7---777-10-9-7-10-5---2-3-5-3-2------| |

B|--------------3-333---------------------------------------5-3-| |

G|--------------------------------------------------------------| |

D|--------------------------------------------------------------| --

A|--------------------------------------------------------------|

E|--------------------------------------------------------------|





G# A x4



A

La otra noche daba vueltas

D A

porque no pude dormir,

A

me sentía muy alegre

E A

me quería divertir.



A

De repente sin pensarlo

D A

a la calle yo salí,

A

http://www.coveralia.com/acordes/otra-vuelta-de-cerveza-doble-fuerza.php

sin dudarlo demasiado

E A

a su encuentro yo me fui.



A la vuelta de la esquina

la estaba por encontrar,

me sentía muy nervioso

cada vez la quiero más.



El momento había llegado

y sin mucha explicación,

entre rápido en el bar

para sentir la emoción.





D A

Cada vez que pasa el tiempo,

E A

cada vez me gusta más,

D A

cuando me siento feliz

B E

yo me pongo a cantar X2



D

Jefe! Sirvase otra vuelta de cerveza

A D

que no me importa nada aunque me duela la cabeza

D F# G

Jefe! Sirvase otra vuelta y nada más

D A D

que no me importa nada, solo quiero festejar.





Letra subida por: Anónimo

El acorde de Otra Vuelta De Cerveza de Doble Fuerza es una versión de la canción original realizada por colaboradores/usuarios de Coveralia.

¿Has encontrado algún error en esta página? Envíanos tu corrección del acorde