música
Buscador

Acorde de Orugas - Las Pelotas

Letra de Orugas

Intro:

e-|-----------------|----|-

B-|-----------------|----|-

G-|-----------------|----|-

D-|-----------------|-x8-|-

A-|-4-4-4-4-4-4-4-2-|----|-

E-|-2-2-2-2-2-2-2-0-|----|-



entra la 2° guitarra



e-|--------------------|----|-

B-|--------------------|----|-

G-|--------------------|----|-

D-|---4-4----4-2-4-4-2-|-x8-|-

A-|-4------4-----------|----|-

E-|--------------------|----|-



F#m

Salí una tarde a caminar

a darle aire a mi ansiedad

quise olvidarme de consumir

que ni el almuerzo salí a comprar



con riff 1:



Nunca jamas imagine

lo que esa tarde iba a pasar

bajo un árbol me recosté

y vi a esa oruga mirando me decía:

ah-ah-ah-ah-ah-ah-ah-ah...



Riff 2:

A

http://www.coveralia.com/acordes/orugas-las-pelotas.php

e-|----------|---------------|---------|-----------|-

B-|----------|---------------|---------|-----------|-

G-|----------|---------------|---------|-----------|-

D-|----7-----|---------------|---7-----|-----------|-

A-|------7-3-|---5\3---------|-----7-3-|---5-3-----|-

E-|-5--------|-5-----5-3-3-5-|-5-------|-5-----5-3-|-





Hipnotizado y sin hablar

me mira fijo, que va a pasar?

detrás de ella venían mas

muy decididas a almorzar, decía:

ah-ah-ah-ah-ah-ah-ah-ah...



con riff 2



Todas verdosas van por detrás

me van llevando a su lugar

es increíble yo en su mesa

soy su comida, su gran manjar

ah-ah-ah-ah-ah-ah-ah-ah...







Riff 1:



e-|-------------------|---------------|-

B-|-7-5----5---5--5---|-7-5---5---5---|-

G-|------6---6------6-|-----6---6---6-|-

D-|-------------------|---------------|-

A-|-------------------|---------------|-

E-|-------------------|---------------|-

Letra subida por: Anónimo

Discos en los que aparece este acorde: Mascaras De Sal , Seleccion , Vivo

El acorde de Orugas de Las Pelotas es una versión de la canción original realizada por colaboradores/usuarios de Coveralia.

¿Has encontrado algún error en esta página? Envíanos tu corrección del acorde