música
Buscador

Acorde de Ora - Eros Ramazzotti

Letra de Ora

INTRO:



D G D G Em D Dm D

E--2------3--5--5----7--7--7--9---10--------10-------9---9---7----9-------7------------7-----------------*

B--3-3----3--3--3----8--8--8--10--10--10-------10----10--10--8------10----8--8----8--8--8--10----6--7----*

G--2---2--2--2--2----7--7--7--9---11--11----------11-9---9---7---------9--7--9----9-----9--11----7--7----*

D-------------------------------------12-----------------------------------------------------------------*

A--------------------------------------------------------------------------------------------------------*

E--------------------------------------------------------------------------------------------------------*





D

Ora che ognuno va



G D

ora che la città



G

stanca di passi addosso



Em

chiude i portoni e adesso



D-Dm-D

dorme già.



D

Ora che ora è



G D

tempo di star con te



G

ora che i miei pensieri



Em

li sento più leggeri



D

ora che sei



Dm Em A A7

nei sogni miei. 'UUUOOOO'





CORO:



Bm

Ora per me



E7 A

comincia un'ora in più



D G

un'ora che non c'è



Em A A7

in tutto il tempo che sei via tu.



Bm

Come farà?



E7 A

la gente che non sa



D G

non sa parlarsi più



Em A7

emozionarsi più.





SE

http://www.coveralia.com/acordes/ora-eros-ramazzotti.php

REPITE

'INTRO'



D G

Quanto silenzio c'è



Em

ora che ora è



D

ora di te



Dm Em A7

ora di te.





CORO:



Bm

Come farà?



E7 A

la gente che non ha



D G

qualcuno come te



Em A

che si ricorderà ora di me.



Bm

Ora sei qui



E7 A

sicura come sei



D G

la mia certezza tu



Em A A7

per questi giorni miei.





Bm-E7-A-D-G-Em-A





SE

REPITE

'INTRO'



D G

Quanto silenzio c'è



Em

ora che ora è



D

ora di te



Dm Em A7

ora di te.





D

E--2------3--5--5--*

B--3-3----3--3--3--*

G--2---2--2--2--2--*

D------------------*

A------------------*

E------------------*





Letra subida por: Anónimo

Discos en los que aparece este acorde: Cuori Agitati

El acorde de Ora de Eros Ramazzotti es una versión de la canción original realizada por colaboradores/usuarios de Coveralia.

¿Has encontrado algún error en esta página? Envíanos tu corrección del acorde