música
Buscador

Acorde de One Day - Zac Brown Band

Letra de One Day

ONE DAY  tune half step down
      A                          E         A                                 E
E|-------------------------------------|---------------------------------------------|
B|----11b12-10-------10-12-10-9--------|---11b12-b13b12-10-------10-12-10-9----------|
G|--------------9h11-------------13s9--|-9------------------9h11-------------13s9----|
D|-------------------------------14----|-------------------------------------14------|
A|-0m----------------------------------|---------------------------------------------|
E|-------------------------------------|---------------------------------------------|

e|-------------------------------------|
B|--12-12-12-10-10-10-9-9-9-7-7-7s5----|
G|-------------------------------------|
D|-------------------------------------|
A|-------------------------------------|
E|-------------------------------------|

A                                                         E
On the breeze you came blowing in   Never knew I'd give myself again
                     A                                      E
Like a bird floating on the wind    Your heart was made for flying
A  Amaj7          A7                D
One day with you     Is all that it takes
  D#dim           A      Amaj7  A7             D
To bring me back again, I fall      I'm always careless
D#dim    A      D       E
Never concerned where I land      (REPEAT INTRO)
A                                                            E
In the night like a long lost friend     My heart wondering where you been
                     A                                      E
We'll never lose our way again           Our flame, it is undying
A  Amaj7          A7                D
One day with you     Is all that it takes
  D#dim           A      Amaj7  A7             D
To bring me back again, I fall      I'm always careless
D#dim    A      D       E
Never concerned where I land
    A                      C#m
Oh, you lift me up off the ground  (Light as a feather)
           A           (A)  (B) (C#) F#
Time after time     My love for you climbs
C#       B        C#
Over and over and over and over  (NO GUITAR CHORUS/ JUST PERCUSSION)

A  Amaj7          A7                D
One day with you     Is all that it takes
  D#dim           A      Amaj7  A7             D
To bring me back again, I fall      I'm always careless
D#dim    A      D       E
Never concerned where I land  (Na na na na)

A                                                  E
All I really need is your love  (Na na na na na na, that's all baby) (Na na na na)
A                                                 E
All I really need is your love (Na na na na na na, that's all baby) All that I want is

A  Amaj7          A7                D
One day with you     Is all that it takes


Letra subida por: Anónimo

Discos en los que aparece este acorde: Jekyll + Hyde

El acorde de One Day de Zac Brown Band es una versión de la canción original realizada por colaboradores/usuarios de Coveralia.

¿Has encontrado algún error en esta página? Envíanos tu corrección del acorde