música
Buscador

Acorde de Oh Lisa - Weezer

Letra de Oh Lisa





Tuning: Standard (EADGBE)



Intro / Bridge:



A#5 F/A D5

l.r.

E| -----------------------------------------------------------------------

B| ------------3-3--------------2---2---2---3-----------------------------

G| ------------------2----------------------------------------------------

D| -----------------------------------------------------------------------

A| -----------------------------------------------------------------------

E| -----------------------------------------------------------------------



Verse 1:



D5 A/C# C5 G/B A#5

Simple stages in my mind, now I'm running out of time

F/A A#5

I'm wanting to,

G5

I wanna do you





Verse 2:



ticked and stomped off feeling strong, running circles overboard.

im running too. i wanna do you.





Chorus:



D5 C5

Ohhhh Lisa can you

D5 C5

Love me again



A#5 A5 D5

I'll be holding on till then

http://www.coveralia.com/acordes/oh-lisa-weezer.php





Verse 3:



we'll be old enough to tell, what is right and what is heck.

im running too. i wanna do you.



Verse 4:



and if this ain't time i'll ask good bye, i would love to see you cry.

im running too. i wanna do you.





Chorus

bridge twice

solo

chorus

bridge

4th verse



outro:

i wanna do you. i wanna do you. i wanna do you.





Guitar Solo (dunno if it's correct)

E| -----------------------------------------------------------------------

B| ------------------------------------------6--6--3----------------------

G| ---2--2--2--2--4--6--7--------7--7--7--7--7--7--3----------------------

D| -----------------------------------------------------------------------

A| -----------------------------------------------------------------------

E| -----------------------------------------------------------------------



E| -----------------------------------------------------------------------

B| -----------------------------------------------3--2--5--3--------------

G| ------------------------3--5--5--2----------2--3--2--5--3--------------

D| -----------------------------------------------------------------------

A| -----------------------------------------------------------------------

E| -----------------------------------------------------------------------

Letra subida por: Anónimo

Discos en los que aparece este acorde: Island In The Sun (Cd Single)

El acorde de Oh Lisa de Weezer es una versión de la canción original realizada por colaboradores/usuarios de Coveralia.

¿Has encontrado algún error en esta página? Envíanos tu corrección del acorde