música
Buscador

Acorde de Octavo Día - Shakira

Letra de Octavo Día

Intro:

Bm F#m G A

E|---------------------------------------------|

B|--3----3-----2----2-----3---3---3-----2------|

G|--4----4-----2----2-----0---0---0-----2------|

D|----4----4-----4----4-----0---0---0-----(2)--|

A|---------------------------------------------|

E|---------------------------------------------|



Verso:

Bm F#m G A

El octavo dia, Dios, despues de tanto trabajar

Bm F#m G A

para liberar tensiones luego ya de revisar

Bm F#m G A

Dijo todo esta muy bien, es hora de descansar

Bm F#m G A

Y se fue a dar un paseo por el espacio sideral



D A Bm

Desde ése entonces hay quienes lo han visto

A G D E A

Solo en las calles transitar

D A Bm

Aun esperando va siempre por alguien

A G F Em* A#

con quien al menos tranquilo pueda conversar



coro:

D5 A5 G5 A#5 C5

Mientras tanto este mundo gira, gira sin poderlo detener

D5 A5 G5 A#5 C5

Y aqui abajo unos cuantos nos manejan como fichas de ajedrez

Em G5 D5 A5

no soy la clase de idiota que se deja convencer

Em A

pero digo la verdad y hasta un ciego lo puede ver



http://www.coveralia.com/acordes/octavo-dia-shakira.php

Verso:

Bm F#m G A

El octavo dia, Dios, despues de tanto trabajar

Bm F#m G A

para liberar tensiones luego ya de revisar

Bm F#m G A

Dijo todo esta muy bien, es hora de descansar

Bm F#m G A

Y se fue a dar un paseo por el espacio sideral



D A Bm

Desde ése entonces hay quienes lo han visto

A G D E A

Solo en las calles transitar

D A Bm

Aun esperando va siempre por alguien

A G F Em* A#

con quien al menos tranquilo pueda conversar



coro 2x:

D5 A5 G5 A#5 C5

Mientras tanto este mundo gira, gira sin poderlo detener

D5 A5 G5 A#5 C5

Y aqui abajo unos cuantos nos manejan como fichas de ajedrez

Em G5 D5 A5

no soy la clase de idiota que se deja convencer

Em A

pero digo la verdad y hasta un ciego lo puede ver

Bm F#m G A

E|--10-----9-----------10-----9------------|

B|-----12----10-----------12----10----10---|

G|--------------11-----------------11------|

D|-----------------------------------------|

A|-----------------------------------------|

E|-----------------------------------------|



El acorde de Octavo Día de Shakira es una versión de la canción original realizada por colaboradores/usuarios de Coveralia.

¿Has encontrado algún error en esta página? Envíanos tu corrección del acorde