música
Buscador

Acorde de O Coro Vai Comę! - Charlie Brown Jr.

Letra de O Coro Vai Comę!

Tom: A#





(intro) Cm7 Eb





E|---------------------------------------------------------------------|

B|---------------------------------------------------------------------|

G|---------------------------------------------------------------------|

D|-----5-5-3-1------1-0-1-0-1-------5-5-3-1-------1-0-1-0-1------------|

A|---3-------------------------3-----------------------------3---------|

E|---------------------------------------------------------------------|





Cm7

corra vá ver o que acontece

e volte aqui pra me falar

o que parou a cidade inteira

novamente



Cm7 Eb

acordou todo mundo,

mulherada muito loca

Cm7 Eb

com doce na boca!



Cm7 Eb

meu tu não sabe o que aconteceu!

os caras do charlie brown invadiram a cidade!

Cm7 Eb

chame sua mae seu cachorro e sua sogra, traga todo mundo

Cm7 Eb

o coro vai comê!



Cm7

give it up hey!

Eb Eb

do you really wanna do it boy , camon

Cm7

give it up hey,hey,hey!

Eb ( Cm7 Eb )

do you really wanna do it boy , yeah...





E|---------------------------------------------------------------------|

B|---------------------------------------------------------------------|

G|---------------------------------------------------------------------|

D|----5-5-3-1------1-0-1-0-1-------5-5-3-1-------1-0-1-0-1-------------| (4x)

A|---3-------------------------3-----------------------------3---------|

E|---------------------------------------------------------------------|





Cm7

you got a biron bacon xotonson

Eb

http://www.coveralia.com/acordes/o-coro-vai-comy-281---charlie-brown-jr-.php

give up legalize!

Cm7 Eb

travazon , rasga rasgazon travazon yeah



Não vou nem me preocupar, velha chata vai pra lá

Cm7 Eb

yeah

Cm7

eu disse

corra vá ver o que acontece

e volte aqui pra me falar

o que parou a cidade inteira

novamente

Cm7 Eb

acordou todo mundo,

mulherada muito loca

Cm7 Eb

com doce na boca!





E|---------------------------------------------------------------------|

B|---------------------------------------------------------------------|

G|---------------------------------------------------------------------|

D|-----5-5-3-1------1-0-1-0-1-------5-5-3-1-------1-0-1-0-1------------|

A|---3-------------------------3-----------------------------3---------|

E|---------------------------------------------------------------------|





(refrão 2x)

Cm7 Eb

meu tu não sabe o que aconteceu!

os caras do charlie brown invadiram a cidade!

Cm7 Eb

chame sua mae seu cachorro e sua sogra, traga todo mundo

Cm7 Eb

o coro vai comê!



Cm7

give it up hey!

Eb Eb

do you really wanna do it boy , camon

Cm7

give it up hey,hey,hey!

Eb (Cm7 Eb)

do you really wanna do it boy , yeah...

Cm7

give it up hey!

Eb Eb

do you really wanna do it boy , camon

Cm7

give it up hey,hey,hey!

Eb (Cm7 Eb)

do you really wanna do it booooyy , charlie brown

Discos en los que aparece este acorde: Transpiraçao Continua Prolongada

El acorde de O Coro Vai Comę! de Charlie Brown Jr. es una versión de la canción original realizada por colaboradores/usuarios de Coveralia.

¿Has encontrado algún error en esta página? Envíanos tu corrección del acorde