música
Buscador

Acorde de Now I'm Here - Queen

Letra de Now I'm Here

NTRO:

e|---------|

B|---------|

G|---------|

D|--7------|

A|--5-x14--|

E|---------|





e|----------------------------------------|

B|----------------------------------------|

G|----------------------------------------|

D|-------77777777777777775555555544444444-|

A|-------55555555555555553333333322222222-|

E|----------------------------------------|

pm...............................

Now Im Here!



e|----------------------------------------|

B|----------------------------------------|

G|----------------------------------------|

D|-------77777777777777775555555544444444-|

A|-------55555555555555553333333322222222-|

E|----------------------------------------|

pm...............................

Now Im There!



e|------------------------------------------------|

B|------------------------------------------------|

G|------------------------------------------------|

D|-------7777777777777777555555554444444433333333-|

A|-------5555555555555555333333332222222211111111-|

E|------------------------------------------------|

pm.......................................







Bridge 1:



A A A A

I´m just a…



B B B B

Just a new man, yes you made me live again





Riff 1:

e|--------------------------------|----------------------------|

B|--------------------------------|----------------------------|

G|--------------------------------|-------------9-99-9-9-77----|

D|--------------------------------|------02-----9-99-9-9-77-7--|

A|----------2---------5-5-0----2-2|---012-------7-77-7-7-55-7--|

E|-0--3400------5-450-------------|-2-------0---------------5--|





1st verse:

1. 2.

e|-----------------|-----------------||-----------------|

B|-----------------|-----------------||-----------------|

G|-----------------|-----------------||-----------------|

D|-----------------|-9-9-99-9-9-77---||-9-9-99-9-9-99-9-|

A|-9-9--9-9-9-9-99-|-7-7-77-7-7-55-7-||-7-7-77-7-7-77-7-|

E|-7-7--7-7-7-7-77-|---------------5-||-----------------|



A baby I was when you took my hand

And the light of the night burned bright

http://www.coveralia.com/acordes/now-i-m-here-queen.php

The people all stared didn't understand

But you knew my name on sight









Bridge 2:

A D B E

Whatever came of you and me,



C# F# D# G#

America´s new bride to be –



E D

oh, don´t worry baby I´, safe and sound



G

Down in the dungeons just peaches and me









Bridge 1b:

B

Don't I love her so



B

Yes you made me live again, yeah





=> Riff 1





2nd Verse: (Verse Pattern as above)



Yeah, ooh, a thin moon me in a smoke-screen sky

Where the beams of your lovelight chase

Don't move, don't speak, don't feel no pain

With the rain running down my face







Bridge 2b:



G C A D

Your matches still light up the sky



B E C# F# D E

And many a tear lives on in my eye - Oooohhh



A

Down in the city just Hoople 'n' me









Solo (over this Rhythm Guitar riff) til fade-out



e|---------------------------------|

B|---------------------------------|

G|---------------------------------|

D|---------------------------------|

A|-9-9-9-9-9-9-9-9-2--2-2--7--7-7--|

E|-7-7-7-7-7-7-7-7-0--0-0--5--5-5--|



¿Has encontrado algún error en esta página? Envíanos tu corrección del acorde